» » »

Daft Punk, Television Rules The Nation Tabs (ver.1)

Artists:  A B C D E F G H I J K L M N O P Q R S T U V W X Y Z # 

Television Rules The Nation Tabs (ver.1)

Daft Punk Tabs
 Rating:
4/5 (4 votes)
Television Rules The Nation lessons Tabs too difficult? Try these video lessons and learn fast
                -------------------------------------------------------------------------------
-------------------------------------------------------------------------------


Tuning: Standard, or a bit lower for a little more power.

 
Turn your gain and bass all the way up for this one.
Simple, but entertaining.

Edit: Dropped the chords down a fret; sounds much better now

e|---------------------------------------------------------------------------|
B|---------------------------------------------------------------------------|
G|------------------5------4-2-----------------------------------------------|
D|-2------4-5-------5------4-2-----------------------------------------------|
A|-2------4-5-------3------2-0-----------------------------------------------|
E|-0------2-3----------------------------------------------------------------|




===============================================================================
            
Submit corrections

comments powered by Disqus
↑ Back to top | Daft Punk Tabs for Television Rules The Nation. Lyrics for acoustic guitar and electric guitar. Tablatures and chords are parodies/interpretations of the original songs. You may use it for private study, scholarship, research or language learning purposes only