>
 >
One More Time 4

One More Time 4 Bass Tabs

Daft Punk - One More Time 4 chords, tabs, tablatures, lyrics

Guitar lessons | Add/correct | Request | Top 50 tabs Artists:  A B C D E F G H I J K L M N O P Q R S T U V W X Y Z 0-9

One More Time 4 Bass Tabs – Daft Punk

CD, Sheet music, Poster

Do you like One More Time 4? Share with your friends now
Bass TabsBass Tabs v2Bass Tabs v3Bass Tabs v4ChordsTabsTabs v2Ukulele

ok.... i see noone had got this tabbed correctly...
witch is weird, seeing how easy this part is...

Riff 1: 
 3x
G|-----------------------------|  
D|-----------------------------|    
A|------------------------5----|  
E|-3---3-3---3-3---3-3--3---5--|  
 1x
G|-----------------------------|
D|-----------------------------|
A|-----------------------------|  
E|-2--2--2--2--2--2--2-5-------|


Riff 2
(this parts actually mostly not on bass, but yea...)

G|-----------------------------|
D|-----------------------------|
A|-----------------------------|
E|-3------2------0------5------|


for any suggestions or corections .....





Comments


Popular Daft Punk tabs & chords
Alive Bass Tabs
Digital Love 2 Bass Tabs
Phoenix Bass Tabs
Get Lucky Chords
Get Lucky 6 Chords
Aerodynamic 10 Tabs
Around The World Tabs
Disc Wars Tabs
Robot Rock Tabs
The Brainwasher Tabs


Song lyrics



↑ Back to top | Tablatures and chords are parodies/interpretations of the original songs. You may use it for private study, scholarship, research or language learning purposes only
© 2014 AZChords.com Contact us | Privacy policy | DMCA | Add/correct tabs | Request tabs | Top 50 tabs