» » »

Daft Punk, One More Time Tabs (ver.2)

Artists:  A B C D E F G H I J K L M N O P Q R S T U V W X Y Z # 

One More Time Tabs (ver.2)

Daft Punk Tabs
 Rating:
4.3/5 (6 votes)
One More Time lessons Tabs too difficult? Try these video lessons and learn fast
1
                      Title: One More Time


Standard Tuning
- This song is written in 4/4 time
- Accent on the ^ (everything without is like an echo)
- the octave range is condensed for guitar.

      ^       ^       ^         ^
      1 + 2 + 3 + 4 + 5 + 6 + 7 + 8 +
e|---------------------------------------------| (riff 1)
B|----3---3---3---3---3---3--------------------|
G|----4---4---4---4---4---4-----6--------------|
D|----5---5---5---5---5---5-----7--------------|
A|------------------------------7--------------|
E|---------------------------------------------|
Play 3 times
 
      ^   ^   ^   ^   ^   ^   ^ ^
      1 + 2 + 3 + 4 + 5 + 6 + 7 + 8 +
e|----0---0---0---0---0---0---0----------------| (riff 2)
B|----2---2---2---2---2---2---2-2--------------|
G|----2---2---2---2---2---2---2-2--------------|
D|----4---4---4---4---4---4---4-2--------------|
A|---------------------------------------------|
E|---------------------------------------------|
Play 1 time

0:00 - just repeat riffs 1 and 2 twice (bass is really soft in the opening)

      G                         A
      1 + 2 + 3 + 4 + 5 + 6 + 7 + 8 +
e|---------------------------------------------| (riff 1)
B|----3---3---3---3---3---3--------------------|
G|----4---4---4---4---4---4-----6--------------|
D|----5---5---5---5---5---5-----7--------------|
A|----------------------------5-7--------------|
E|----3-----3-3-----3-3-----3---5--------------|
Play 3 times

      F#m7 (if you've ever played "Minor Thing" by RHCP or "Across the Universe" 
      1 + 2 + 3 + 4 + 5 + 6 + 7 + 8 +
e|----0---0---0---0---0---0---0----------------| (riff 2)
B|----2---2---2---2---2---2---2-2--------------|
G|----2---2---2---2---2---2---2-2--------------|
D|----4---4---4---4---4---4---4-2--------------|
A|------------------------------0--------------| (hold the bass note down with your thumb and the
E|----2---2---2---2---2---2---2----------------|  last chord is a regular "A")
Play 1 time

0:31 - vocals come in
0:41 - beat comes in and the second riff gets played solo
Listen to the song to get the feel for the lyrics and melody.

      1 + 2 + 3 + 4 + 5 + 6 + 7 + 8 +
e|---------------------------------------------| (riff 1)
B|----3---3---3---3---3---3--------------------|
G|----4---4---4---4---4---4-----6--------------|
D|----5---5---5---5---5---5-----7--------------|
A|----------------------------5-7--------------|
E|----3-----3-3-----3-3-----3---5--------------|
Play 4 times before the middle part

2:05 - riff 1 becomes muted(step up on wah-wah pedal if you have one)

      1 2 3 4 1 2 3 4 1 2 3 4 1 2 3 4
e|----10------10------10------10---------------|
B|----12------10------12------10---------------| (some chords you might have an awkward finger
G|----12------11------12------12---------------|  position to get the bass note in. For the 3rd
D|--------------------14-----------------------|  chord use your thumb.)
A|----10------9---------------12---------------| 
E|--------------------12-----------------------| (sounds fine if you want to strum w/o bass note)

2:21 - repeat the 4 chords with vocals 15~ times. Riffs come in at around 12
3:48 - 3:50 the riffs start to fade in
Repeat riffs 1 and 2 with vocals until Aerodynamic.
            
Submit corrections

comments powered by Disqus
↑ Back to top | Daft Punk Tabs for One More Time. Lyrics for acoustic guitar and electric guitar. 1 Tablatures and chords are parodies/interpretations of the original songs. You may use it for private study, scholarship, research or language learning purposes only