» » »

Daft Punk, Horizon Bass tabs (ver.1)

Artists:  A B C D E F G H I J K L M N O P Q R S T U V W X Y Z # 

Horizon Bass tabs (ver.1)

Daft Punk Tabs
Rating:
0/5 (0 votes)
Hard to play? Try these video lessons and learn fast.
                The tabs are 95% correct, there's a few notes I think I missed. The timing is not
precise but I tried to make it more friendly to play. The timing is actually
tricky in this song but you should be able to figure most of it out, I've given
any requests for more tabs.

G-----------------------------------------------------------------------------|
D-7---7-7---7-----------------------------------------------------------------|
A----------------5---5-5-5---0-5--7---7-7-7---7/3--0-----0--------------------|
D------------------------------------------------------------------0----0-0---|

---------------------------------------------------------------------------|
---------------------------------------------7--7-5------------------------|
-----------------------------------------7-------------0-5-----------------|
-2----2---5/10---10-10---10-9-5/7------------------------------------------|

-----------------------------------------------------------------------------|
-----------------------------------------------------------------------------|
-0-----------5------7--7-7/3---3---3----3-2-0--------------------------------|
---0-0----0-----2-------------5--5-----5-------------------------------------|

------------------------------------------------------------------------------|
---------------------------------0----------0---------2--2--------------------|
-0---0--0-0-0----0---------------------------------------------------3--------|
----------------------5-4/0--0----0-0--0------0--2---2--2-2-2-2-2-0-----------|

------------------------------------------------------------------------------|
---------------------7-----7--7h9-7-------------------------------------------|
-3-3-------------7-----7-------------7-5--5----------0-7----------------------|
-----0-2-4-5-7-------------------------------0-0--0-------2-------------------|

-----------------------------------------------------------------------------|
----------------5------------------------------------------------------------|
-------5-7--5----3--3-3--3-3--3-3-3--2--0------------------------------------|
-2--7------------------------------------------------------------------------|

---------------------11h12p11--------------------------------------------|
----7h9---7/--------------------12---------------------------------------|
-7--------------5-------------------------5/7----------------------------|
----------------------------------------2--------------------------------|

--------------5----5------------------------------------------------------|
--------------------------------------------------------------------------|
----7--5--3-----3----3-3-3-3-3-3---0--------------------------------------|
-7------------------------------------5-----------------------------------|

---------------------------------------------------------------------------|
--5h7-5h7--5h7-5---------------0-------------------------------------------|
----------------------7-5------------0----------2-5-7----------------------|
--------------------------0-0---------0-2--2-------------------------------|

-------------5harmonic-------------------------------------------------------|
--------------------------5harmonic------------------------------------------|
-5h7--7/3--------------------------------------------------------------------|
-----------------------------------------------------------------------------|



------------------------------------------------12-11-----------------------|
--------------------------7/9--7-----------12--------12---------------------|
---3--3-2-0---0---7-------------5----5/----------------12-------------------|
-5--5--------5--------7-----------------------------------------------------|

-------------------------------5/7---5--------------------------------------|
-----------------------------5----------7-5----5h7--------------------------|
-9-7-----5-7--7----5-3----------------------5-------------------------------|
-------7----------------------------------------------7---------------------|

-----------------------------------------------------------------------------|
------------------0----------0------2---------2------------------------------|
-----------------------------------------------------------------------------|
-7-7-7-7--7/0----0-0--0-----0-2--2-2--2--------------------------------------|

-----------------------------------------------------------------------------|
-----------------------------------------------------------------------------|
----3--3--3-3-3-3-3-3-3-3-2p0------------------------------------------------|
-2----------------------------------5--7-------------------------------------|

-----------------------------------------------------------------------------|
-7---------------------------------------------------------------------------|
---7------9h10-9--7-------5------------5-------------------------------------|
-----7-7----------------0-------0-0--0---0-----------------------------------|

Repeat next 4 verses until end
------------------------7/5-------5h7-5------------------------------------|
-2---2---0-2---0-2-0----------5-----------7-5---5h7------------------------|
----------------------------------------------5------0---------------------|
---------------------------------------------------------------------------|

-----------------------------------------------------------------------------|
---------------0---------0------2---------2----------------------------------|
-0-0-0---------------------------------------------3-------------------------|
------------0----0-0--0---0--2--2-2--2-------2-------------------------------|

---------------------------------------------------------------------------|
---------------------------------------------------------------------------|
-3--3--3-3-3-3-3-2----------9h10-9-7---------------------------------------|
-----------------------5-7-7-----------------0-----------------------------|

---------------------------------------------------------------------------|
---------------------------------------------------------------------------|
-5-----------5-------------------------------------------------------------|
-----0-0--0----0-----------------------------------------------------------|
            

comments powered by Disqus
↑ Back to top | Daft Punk Bass for Horizon. Lyrics for acoustic guitar and electric guitar. Tablatures and chords are parodies/interpretations of the original songs. You may use it for private study, scholarship, research or language learning purposes only