>
 >
Harder, Better, Faster, Stronger 1

Harder, Better, Faster, Stronger 1 Guitar Tabs

Daft Punk - Harder, Better, Faster, Stronger 1 chords, tabs, tablatures, lyrics

Guitar lessons | Add/correct | Request | Top 50 tabs Artists:  A B C D E F G H I J K L M N O P Q R S T U V W X Y Z 0-9

Harder, Better, Faster, Stronger 1 Guitar Tabs – Daft Punk

CD, Sheet music, Poster

Do you like Harder, Better, Faster, Stronger 1? Share with your friends now
Bass TabsChordsTabsTabs v2
-----------------------------------------------------------------------------
                 DAFT PUNK - Harder, Better, Faster, Stronger
-----------------------------------------------------------------------------


Tuning: Standard (EADGBe)

Just a bit of fun. i think its pretty accurate.


        X4             X2               X4
e|-------------|-----------------|-------------|-----------------------------|
B|-------------|-----------------|-------------|-----------------------------|
G|-------------|-8-6-8-6-8-6-8-6-|-------------|-8-6-8-6-8-6-8-6-8-6-8-6-----|
D|-xx--9-9-x-7-|-----------------|-xx--9-9-x-7-|-----------------------------|
A|-------------|-----------------|-------------|-----------------------------|
E|-------------|-----------------|-------------|-----------------------------|

e|-----------|
B|-----------|
G|-----------|
D|---4-4---2-|
A|-------4---|
E|-2---------|

e|---------------------7-7p5--------|-----------------7\---------5\--|
B|----------------------------------|--------------------------------|
G|---11-11-11---9--9-----------6--6-|-4--2-----4--2--(4)\------------| X4
D|----------------------------------|--------------------------------|
A|-9----------7--7---6-------4--4---|--------------------------------|
E|----------------------------------|--------------------------------|

e|-----------------|-----------------7\---------5\-|
B|-----------------|-------------------------------|
G|-------------2-2-|-4--2-----4--2--(4)\-----------|
D|-----4-4---------|-------------------------------|
A|---------0-0-----|-------------------------------|
E|-2-2-------------|-------------------------------|

e|--------------------------------------|-----------------7\---------5\--|
B|--------------------------------------|--------------------------------|
G|-4/6\4-----2/4\2----------------------|-4--2-----4--2--(4)\------------|
D|---------------------4/6\4------------|--------------------------------|
A|--------------------------------2/4\2-|--------------------------------|
E|--------------------------------------|--------------------------------|

e|-----------------|-----------------7\---------5\-|
B|-----------------|-------------------------------|
G|-------------2-2-|-4--2-----4--2--(4)\-----------|
D|-----4-4---------|-------------------------------|
A|---------0-0-----|-------------------------------|
E|-2-2-------------|-------------------------------|

e|--------------------------------|-----------------7\---------5\-|
B|--------------------------------|-------------------------------|
G|----------4\2-----6\4-----------|-4--2-----4--2--(4)\-----------|
D|-4\2----------------------------|-------------------------------|
A|--------------------------------|-------------------------------|
E|--------------------------2/4\2-|-------------------------------|

e|-----------------|-----------------7\---------5\-|
B|-----------------|-------------------------------|
G|-------------2-2-|-4--2-----4--2--(4)\-----------|
D|-----4-4---------|-------------------------------|
A|---------0-0-----|-------------------------------|
E|-2-2-------------|-------------------------------|

                                               X2
e|-------------------------------------|-----------------|-----------|
B|-------------------------------------|-----------------|-----------|
G|-4/6\4-----2/4\2---------------------|-8-6-8-6-8-6-8-6-|-----------|
D|---------------------4/6\4-----------|-----------------|---4-4---2-|
A|-------------------------------2/4\2-|-----------------|-------4---|
E|-------------------------------------|-----------------|-2---------|

e|-----------------------------------------|-----------------7\---------5\---|
B|-----------------------------------------|---------------------------------|
G|-----4/6\4-----2/4\2-----------2-2-------|-4--2-----4--2--(4)\-------------|
D|-------------------------4/6\4-----------|---------------------------------|
A|---------------------0-0-----------2/4\2-|---------------------------------|
E|-2-2-------2-2---------------------------|---------------------------------|

e|------------------------------------------|-----------------7\---------5\--|
B|------------------------------------------|--------------------------------|
G|---------------2/4\2-----4/6\4--2-2-------|-4--2-----4--2--(4)\------------|
D|-----2/4\2--------------------------------|--------------------------------|
A|---------------------0-0------------------|--------------------------------|
E|-2-2-------2-2----------------------2/4\2-|--------------------------------|

e|-----------------------------------------|---------------------------------|
B|-----------------------------------------|---------------------------------|
G|-----4/6\4-----2/4\2-----------2-2-------|-------------4\2-4/6\4-2------2--|
D|-------------------------4/6\4-----------|---------2/4-------------4-2/4-4-|
A|---------------------0-0-----------2/4\2-|-----2p0-------------------------|
E|-2-2-------2-2---------------------------|-2/5-----------------------------|


e|----------------------------------------7-5-------------5------------------|
B|---------2--------------------------7-------7-4-------7--------------------|
G|-------2---2-2-----2--4-2-------------8-----------6/7----------------------|
D|-----4------4-----2-2----/6-7----------------------------------------------|
A|--------------------------------6-6--------------(4)-----------------------|
E|-2-2-------------0-----------------------------------------22--22----------|

          X2
e|-------------------|-------------------------------------------|
B|-------------------|-------------------------------------------|
G|-----2---4b6r4-2---|-------------------------------------------|
D|-2-4---4---------4-|-77~---44~-----------77~---44~---77~---44~-|
A|-------------------|-------------------------------------------|
E|-------------------|-----------55~---22~-----------------------|

          X2
e|-------------------|------5---7b9r7-5--------------------|
B|-------------------|-/5-7---7---------7------------------|
G|-----2---4b6r4-2---|-------------------------2/4---------|
D|---4---4---------4-|---------------------2/4-------------|
A|-------------------|-------------------------------------|
E|-------------------|------------------------------22--22-|

e|---------------------------------------------------------|
B|------10----12b14r12p10------------------10----12b14-10--|
G|-9-11----11-------------11---/9b11r9~-11----11-----------|
D|---------------------------------------------------------|
A|---------------------------------------------------------|
E|---------------------------------------------------------|

e|-----------------------------------------------------|
B|--------10-x----12b14r12-----------------------------|
G|-9-9-11------11----------11-9-11---------------------|
D|---------------------------------7-9-------/7--------|
A|-------------------------------------9-7-9----9------|
E|------------------------------------------------/4-2-|

e|-/9-7--------------/7-5-----5---/9-7--5h7p5h7p5h7p5h7p5h7p5h7p5-7-9--|
B|-----------5-7-5-7------5-7---7--------------------------------------|
G|---------------------------------------------------------------------|
D|---------------------------------------------------------------------|
A|------/9-9-----------------------------------------------------------|
E|---------------------------------------------------------------------|

                           i know this is sorta wrong but its the best i
                           could do for standard tuning. and i couldn't be
                           bothered figuring out the voice over the top.
                                               X3
e|-7/9\7-----------------|----------------------------------------------------|
B|-------7-10------------|----------------------------------------------------|
G|------------/11-11-----|----------------------------------------------------|
D|-----------------------|----------------------------------------------------|
A|-----------------------|------------------6-x-6--6-66-----------5-x-5-5-5h7-|
E|-------------------2-2-|-2-x-2--2-4p2-22-------------0-x-0--0-00------------|

  on the last time substitute
  the end for this

e|-------14-14------------------|--------------------------------------------|
B|-12-14------------------------|-12b14-12-----------10b12-10----------------|
G|-------------11-11------------|----------9-11-9-11-------------------------|
D|------------------------------|------------------------------9-7-----------|
A|-------------------9-9-9------|----------------------------------9-7-------|
E|--------------------------2-2-|--------------------------------------------|

e|---------------------------------------------------------------------------|
B|-----------------------10h12b14-12-10-10h12b14-12-10-----------------------|
G|-----------------------------------------------------11~---9--9h11-11------|
D|---------------------------------------------------------11-11-------------|
A|-/9---/9~---7---7h9-9------------------------------------------------------|
E|---9------9---9------------------------------------------------------------|

e|-------------------------------------------------------14-14---------------|
B|-12b14-12-----------------10b12-10---7----5/7-7--12-14---------------------|
G|------------11--11p9-x-11----------9---66--------------------11-11---------|
D|----------11--11---------------------------------------------------999-----|
A|---------------------------------------------------------------------------|
E|-----------------------------------------------------------------------2-2-|

e|-21-21-21-21-x-21-x-21-x-21-x-19-x-17------19b21r19p17---------------------|
B|--------------------------------------x-19-------------19p17---------------|
G|---------------------------------------------------------------------------|
D|-------------------------------------------------------------x-16-x-19-----|
A|---------------------------------------------------------------------------|
E|---------------------------------------------------------------------------|

e|---------------------------------------------------------------------------|
B|---------------------------------------------------------------------------|
G|-x-16-x-18----16-18-16---------------/18--/18-/18-/18p16-------------------|
D|-----------19----------19----16-19-----------------------19----------------|
A|--------------------------19-----------------------------------------------|
E|---------------------------------------------------------------------------|

e|---------------------------------------------------------------------------|
B|-----------------------12b14r12p10---------------------------12/14-12-10---|
G|-----------------------------------11-----------------------------------11-|
D|-/11-9-7----------7----------------------------44--/11-9-7-----------------|
A|---------9---/7-9---9----------------------22--------------9---------------|
E|----------------------------------------55---22----------------------------|

e|---------------------------------------------------------------------------|
B|-----------------10-----12/14-12-10----------------------------------------|
G|-----------/9-11----11--------------11-------------------------------------|
D|------7---------------------------------/11-9-7-----44--44-------4\--------|
A|-/7-9---9---------------------------------------9--------------------------|
E|------------------------------------------------------------22--22\--------|


THE END

************************************

| /   slide up
| \   slide down
| h   hammer-on
| p   pull-off
| ~   vibrato
| +   harmonic
| x   Mute note
| b   Bend
| pb  Pre-bend
| br  Bend release
| pbr Pre-bend release
| brb Bend release bend

************************************





Comments


Popular Daft Punk tabs & chords
Around The World 2 Bass Tabs
Harder, Better, Faster, Stronger Bass Tabs
Somehting About Us Bass Tabs
Get Lucky 7 Chords
Aerodynamic 2 Tabs
Aerodynamic 3 Tabs
Make Love 1 Tabs
Something About Us 1 Tabs
Television Rules The Nation Intro 1 Tabs
Tron Legacy - End Titles Intro Tabs


Song lyrics



↑ Back to top | Tablatures and chords are parodies/interpretations of the original songs. You may use it for private study, scholarship, research or language learning purposes only
© 2014 AZChords.com Contact us | Privacy policy | DMCA | Add/correct tabs | Request tabs | Top 50 tabs