» » »

End Of Line Bass tabs (ver.1)

Artists:  A B C D E F G H I J K L M N O P Q R S T U V W X Y Z # 

End Of Line Bass tabs (ver.1)

Daft Punk
Rating:
0/5 (0 votes)

Hard to play? Try these video lessons and learn fast.
                Played throughout entire song >
G|------------------------------------------------------------|
D|------------------------------------------------------------|
A|-7-7-7-7-7-0-0-3-3-3----------------------------------------|
E|------------------------------------------------------------|


Main "Lead" part > (play as needed)
G|-----2------------------------------------------------------|
D|-0-2------0-------------------------------------------------|
A|-------0----3-----------------------------------------------|
E|---------------1--------------------------------------------|

Great tune that i thought id tab for bass because it works so well and i'd only seen 
guitar parts. Try playing with effects if youve got em' such as synth for extra 
awesomeness. Timing is quite easy to figure out... ENJOY!
            
Hard to play? Try these video lessons and learn fast. | Correct




comments powered by Disqus
↑ Back to top | Tablatures and chords are parodies/interpretations of the original songs. You may use it for private study, scholarship, research or language learning purposes only