» » »

Around The World Bass tabs (ver.2)

Artists:  A B C D E F G H I J K L M N O P Q R S T U V W X Y Z # 

Around The World Bass tabs (ver.2)

Daft Punk
Rating:
3/5 (5 votes)

Hard to play? Try these video lessons and learn fast.
                

Jonathan: This song has a really sweet bass line. I'm gonna do my best on it,
          I tried to leave space for timing. You'll figure it out.
 
 
Vuk: One of the best bass lines I've heard. Especially second riff, which is
     incredibly hard to master. This is a small correction to Jonathan's tab.


Standard Tuning.

Intro

G-----------------------|
D-4-2-0-----------------|
A-------3-2-0-----------|
E-------------3--------0|

I hope that makes sense. What you're supposed to do is hold out
the G, then hit the A.

Main riff (0:24)

G---------------------------------------------------|
D-------------------------0-2-2-2-2--4-2-0----------|
A--0-0-0-0-0-2-3-3-3-3-3-------------------3-2-0----|
E------------------------------------------------3--|

Second riff (1:51)/=slide

G-------------------------------|
D----------------------------7/5|
A----5-7---53-53-575-3532-2-----|
E--0----------------------------|

G------------------------------|
D---------------------------7/5|
A----5-7---53-53-575-3532------|
E--0---------------------------|


Out at (2:38), then at (3:10) play intro riff through the rest
of the song.

Jonathan: That's about it. Once again, if you see anything wrong, don't
          questions to posting this on another site, etc... Later.
 
Vuk: I still don't think I got it right, but it sounds ok when playing together with song.
            
Hard to play? Try these video lessons and learn fast. | Correct




comments powered by Disqus
↑ Back to top | Tablatures and chords are parodies/interpretations of the original songs. You may use it for private study, scholarship, research or language learning purposes only