» » »

Airodynamic Tabs (ver.1)

Artists:  A B C D E F G H I J K L M N O P Q R S T U V W X Y Z # 

Airodynamic Tabs (ver.1)

Daft Punk
Rating:
0/5 (0 votes)

Hard to play? Try these video lessons and learn fast.
                This song is extremly trick for unexperienced players and sounds good when tryig to show off to 
your mates.
                             H     means hammer on
                             p     means pull off
                             ( )    means bend the string
MAIN BEAT: 

E--------------------------------------------------------------------------------------------------------------------

B--------------------------------------------------------------------------------------------------------------------

G-------7-------------------------7----------------7--------------------7-------------7-------------------7-------
                                   H                                               H                                              H
D-------------9---------7---9-------------9-------7-----9----7--9--------9--------7---  9-7----- 9-7-----9---

A--------------------------------------------------------------------------------------------------------------------

E--------------------------------------------------------------------------------------------------------------------


LEAD MELODY:


E--------------------------------------------------------------------------------------------------------------------

B--------------------------------------------------------------------------------------------------------------------

G--------------------------------------------------------------------------------------------------------------------
                 P    H     P             P    H    P             P   H   P                 P   H   P                                                                          
D------(12)---4----9----4--(12)---4---9---4--(12)---4---9--4-----(12)---4---9--4-------------------------

A--------------------------------------------------------------------------------------------------------------------

E--------------------------------------------------------------------------------------------------------------------


E--------------------------------------------------------------------------------------------------------------------

B--------------------------------------------------------------------------------------------------------------------

G--------------------------------------------------------------------------------------------------------------------
                 P    H     P             P    H    P             P   H   P                 P   H   P                                                                          
D------(12)---6----9----6--(12)---6---9---6--(12)---6---9--6-----(12)---6---9--6-------------------------

A--------------------------------------------------------------------------------------------------------------------

E--------------------------------------------------------------------------------------------------------------------


E--------------------------------------------------------------------------------------------------------------------

B--------------------------------------------------------------------------------------------------------------------
                 P   H    P              P    H    P             P   H   P                 P   H   P
G------(12)--4---9----4--(12)----4---9----4--(12)---4--9--4------(12)--4---9--4--------------------------
                                                                                           
D--------------------------------------------------------------------------------------------------------------------

A--------------------------------------------------------------------------------------------------------------------

E--------------------------------------------------------------------------------------------------------------------



E--------------------------------------------------------------------------------------------------------------------

B--------------------------------------------------------------------------------------------------------------------

G--------------------------------------------------------------------------------------------------------------------
                 P    H     P             P    H    P             P   H   P                 P    H     P                                                                          
D------(14)---7---11----7--(14)--7--11---7--(14)--7-11---7-----(14)---7---11--7-------------------------

A--------------------------------------------------------------------------------------------------------------------

E--------------------------------------------------------------------------------------------------------------------
            
Hard to play? Try these video lessons and learn fast. | Correct




comments powered by Disqus
↑ Back to top | Tablatures and chords are parodies/interpretations of the original songs. You may use it for private study, scholarship, research or language learning purposes only