» » »

Daemonarch, The Seventh Daemonarch Bass tabs (ver.1)

Artists:  A B C D E F G H I J K L M N O P Q R S T U V W X Y Z # 

The Seventh Daemonarch Bass tabs (ver.1)

Daemonarch Tabs
 Rating:
4/5 (4 votes)
The Seventh Daemonarch lessons Tabs too difficult? Try these video lessons and learn fast
1
                MUSIC: THE SEVENTH DAEMONARCH (Album:Hermeticum,Track 7 6:18)
BASS PLAYER:SÉRGIO CRESTANA

Riff  1
E ---------------------------|
A -7-8-8-7-8-8-7-8-8-5-5-5-5-|
D ---------------------------|
G ---------------------------|

Riff  2
E -5-5-5-5-5-5-5-5-5-5-5-5-5-5-5-5-5-5-1-1-1-1-1-1-1-1---------------------3-3-3-3-3-3-3-3--|
A-------------------------------------------------------3-3-3-3-3-3-3-3---------------------|
D ------------------------------------------------------------------------------------------|
G ------------------------------------------------------------------------------------------|

Riff  3
E -0-0-0-0-0-0-0-0-0-0-0-0-0-0----------|
A ------------------------------3-3-3-3-|
D --------------------------------------|
G --------------------------------------|

Riff 4
E-0-0-0-1-1-1-1-|
A---------------|
D---------------|
G---------------|

Riff 5
E------------------|
A-0-0-0-0------3-3-|
D-----------3-3----|
G------------------|

Riff 6
E------5-5-6-6-1-1-|
A-5-5--------------|
D------------------|
G------------------|

Riff 7
E-5-5-5-5-5-5-5-5-1-1-1-1---------3-3-3-3-|
A-------------------------3-3-3-3---------|
D-----------------------------------------|
G-----------------------------------------|

Riff 1    4 X (00:24)
Riff 2    6 X (00:56)
Riff 3    4 X (02:00)
Riff 4    2 X (02:15)
Riff 2    2 X (02:32)
Riff 5    4 X (03:04)
Riff 6    1 X (03:20)
Riff 5    4 X (03:28)
Riff 2    4 X (03:45)
Riff 4    8 X (04:48)
Riff 7    2 X (05:04)
            
Submit corrections

comments powered by Disqus
↑ Back to top | Daemonarch Bass for The Seventh Daemonarch. Lyrics for acoustic guitar and electric guitar. 1 Tablatures and chords are parodies/interpretations of the original songs. You may use it for private study, scholarship, research or language learning purposes only