» » »

Daemonarch, Samyaza Bass tabs (ver.1)

Artists:  A B C D E F G H I J K L M N O P Q R S T U V W X Y Z # 

Samyaza Bass tabs (ver.1)

Daemonarch Tabs
 Rating:
4/5 (4 votes)
Samyaza lessons Tabs too difficult? Try these video lessons and learn fast
1
                MUSIC:  SAMYAZA  (Album:Hermeticum,Track 5 4:27)
BASS PLAYER:SÉRGIO CRESTANA

Riff  1
E -3-3-3-3-3-3-3-3-2-2-2-2-2-2-2-2-|
A ---------------------------------|
D ---------------------------------|
G ---------------------------------|

Riff  2
E -3-3-3-3 3-3-3-3-2-2-3-3-3-3-3-3-2-2-3-3-3-3-3-3-2-2-2-2-2-2-|
A--------------------------------------------------------------|
D -------------------------------------------------------------|
G -------------------------------------------------------------|

Riff  3
E -5-5-5-5-1-1-1-1-3-3-3-3-3-3-3-3-|
A ---------------------------------|
D ---------------------------------|
G ---------------------------------|

Riff 4
E-5-5-5-5-5-5-5-5-1-1-1-1-1-1-1-1-0-0-0-0-0-0-0-0-3-3-3-3-3-3-3-3-|
A-----------------------------------------------------------------|
D-----------------------------------------------------------------|
G-----------------------------------------------------------------|

Riff 5
E-0-0-0---3-1-3-0-0-0---3-1-3-0-0-0--3-1-3-0-0-0----3-1-3-1-1-1-1------|
A-------1-------------1-------------1-------------1----------------3-2-|
D----------------------------------------------------------------------|
-----------------------------------------------------------------------|
G----------------------------------------------------------------------|
-----------------------------------------------------------------------|

Riff 1    4 X (00:07)
Riff 2    2 X (00:32)
Riff 1    4 X (00:46)
Riff 3    1 X (01:12)
Riff 4    1 X (01:18)
Riff 3    1 X (01:25)
Riff 4    1 X (01:30)
Riff 1    2 X (01:38)
Riff 2    2 X (01:50)
Riff 5    8 X (02:10)
Riff 3    1 X (03:02)
Riff 4    1 X (03:08)
Riff 1    2 X (03:28)
Riff 2    6 X (03:40)
            
Submit corrections

comments powered by Disqus
↑ Back to top | Daemonarch Bass for Samyaza. Lyrics for acoustic guitar and electric guitar. 1 Tablatures and chords are parodies/interpretations of the original songs. You may use it for private study, scholarship, research or language learning purposes only