>
 >
Of A Thousand Young

Of A Thousand Young Bass Tabs

Daemonarch - Of A Thousand Young chords, tabs, tablatures, lyrics

Guitar lessons | Add/correct | Request | Top 50 tabs Artists:  A B C D E F G H I J K L M N O P Q R S T U V W X Y Z 0-9

Of A Thousand Young Bass Tabs – Daemonarch

CD, Sheet music, Poster

Do you like Of A Thousand Young? Share with your friends now
Bass Tabs
MUSIC: OF A THOUSAND YOUNG (Album:Hermeticum,Track 2 4:27)
BASS PLAYER:SÉRGIO CRESTANA

Riff 1
E ---------|
A ---------|
D -7-8-7-5-|
G ---------|

Riff  2
E --------------------------------------------------------------------------------|
A----------------------------------7-7-7-7-7-7-7-7-7-7--------------7-7-7-7-7-7-7-|
D-7-7-7-7-7-7-7-7-10-10-9-9--------------------------10-10-9-9--------------------|
G---------------------------------------------------------------------------------|

-----------------------------------------------------------------|
7----------------------------------------------------------------|
-10-10-9-9-10-10-10-10-10-10-10-10-10-10-12-12-12-12-12-12-12-12-|
-----------------------------------------------------------------|

Riff 3
E-3--------3-2-3-6-5-3-|
A----------------------|
D----------------------|
G----------------------|

Riff 4
E-3-3-3-3-6-5-2-|
A---------------|
D---------------|
G---------------|

Riff 5
E-5-5-5-5-5-5-5-5---------------------------------|
A-----------------3-3-3-3-3-3-3-3-5-5-5-5-5-5-5-5-|
D-------------------------------------------------|
G-------------------------------------------------|

Riff 6
E-------------------------------------------------------------------------------|
A---------------------7-7-7-7-7-7-7-7-------------------------------------------|
D-7-7-7-7-7-7-7-7---------------------7-7-7-7-7-7-7-7-10-10-10-10-12-12-12-12---|
G-------------------------------------------------------------------------------|

Riff 7
E-0-0-0-0-4-4-4-4-0-0-0-0-4-4-4-4-0-0-0-0-4-4-4-4-3-3-3-3-2-2-2-2-|
A-----------------------------------------------------------------|
D-----------------------------------------------------------------|
G-----------------------------------------------------------------|

Riff 8
E-5-5-5-5-5-5-5-5-8-8-8-8-8-8-8-8-7-7-7-7-7-7-7-7-|
A-------------------------------------------------|
D-------------------------------------------------|
G-------------------------------------------------|

Riff 1   10 X (00:10)
Riff 2    2 X (00:17)
Riff 3    1 X (00:45)
Riff 4    8 X (00:58)
Riff 5    2 X (01:24)
Riff 6    1 X (01:38)
Riff 7    3 X (01:55)
Riff 8    2 X (02:36)
Riff 7    2 X (02:50)
Riff 2    1 X (03:24)
Riff 6    1 X (03:40)





Comments


Popular Daemonarch tabs & chords
Call From The Grave Bass Tabs
Corpus Hermeticum Bass Tabs
Lex Talionis Bass Tabs
Samyaza Bass Tabs
The Seventh Daemonarch Bass Tabs


Song lyrics



↑ Back to top | Tablatures and chords are parodies/interpretations of the original songs. You may use it for private study, scholarship, research or language learning purposes only
© 2014 AZChords.com Contact us | Privacy policy | DMCA | Add/correct tabs | Request tabs | Top 50 tabs