» » »

Lex Talionis Bass tabs (ver.1)

Artists:  A B C D E F G H I J K L M N O P Q R S T U V W X Y Z # 

Lex Talionis Bass tabs (ver.1)

Daemonarch
Rating:
0/5 (0 votes)

Hard to play? Try these video lessons and learn fast.
                MUSIC: LEX TALIONIS (Album:Hermeticum,Track 1 5:32)
BASS PLAYER:SÉRGIO CRESTANA

Riff 1
E -0…
A ----
D ----
G ----

Riff  2
E -----------------------------------|
A-7-7-7-7-7-7-7-7------------5-5-5-5-|
D----------------------5-5-5-5-------|
G------------------------------------|

Riff 3
E--------------------------------------------------5-5-5-5-|
A-7-7-7-7-7-7-7-7-----------7-7-7-7-7-7-7-7----------------|
D------------------5-5-5-5------------------5-5-5-5--------|
G----------------------------------------------------------|

Riff 4
E---------------------------------------------------5-5-5-5-|
A-7-7-7-7-7-7-7-7-----------7-7-7-7-7-7-7-7-----------------|
D------------------5-5-5-5------------------5-5-5-5---------|
G-----------------------------------------------------------|

Riff 5
E-7-7-7-7-----------6-6-6-6---------|
A-----------5-5-5-5-----------5-5-5-|
D-----------------------------------|
G-----------------------------------|

Riff 6
E-2-2-2-2-2-2-2-2-2-2-2-2-2-2-2-2-2-2-2-2-2-2-2-2-2-2-2-2-2-2-2-2-2-2-2-2-2-2-2-2-2-2-2-2-2-2-|
A---------------------------------------------------------------------------------------------|
D---------------------------------------------------------------------------------------------|
G---------------------------------------------------------------------------------------------|

Riff 7
E-----------------------------------------------------------------|
A-----------------------------------------------------------------|
D-7-7-7-7-7-7-7-7-----------------7-7-7-7-7-7-7-7---------5-5-5-5-|
G-----------------5-5-5-5-5-5-5-5-----------------5-5-5-5---------|

Riff 1   60 X (00:10)
Riff 2    8 X (00:48)
Riff 1   50 X (01:16)
Riff 3   3  X (01:45)
Riff 4   1  X (02:14)
Riff 2   8  X (02:20)
Riff 5   4  X (02:57)
Riff 6   1  X (03:11)
Riff 5   2  X (03:25)
Riff 6   1  X (03:32)
Riff 1   60 X (03:40)
Riff 7   4  X (04:08)
Riff 7   5  X (04:44)
            
Hard to play? Try these video lessons and learn fast. | Correct




comments powered by Disqus
↑ Back to top | Tablatures and chords are parodies/interpretations of the original songs. You may use it for private study, scholarship, research or language learning purposes only