» » »

Daemonarch, Corpus Hermeticum Bass tabs (ver.1)

Artists:  A B C D E F G H I J K L M N O P Q R S T U V W X Y Z # 

Corpus Hermeticum Bass tabs (ver.1)

Daemonarch Tabs
 Rating:
4/5 (4 votes)
Corpus Hermeticum lessons Tabs too difficult? Try these video lessons and learn fast
                MUSIC: CORPUS HERMETICUM (Album:Hermeticum,Track 3 4:51)
BASS PLAYER:SÉRGIO CRESTANA

Riff  1
E ----------------4-4-4-4-5-5-5-5----------------|
A -4-4-4-4-4-4---------------------2-2-2-2-2-2-2-|
D -----------------------------------------------|
G -----------------------------------------------|

Riff  2
E -0-0-0-0-0-0-0-0-0-0-3-3-3-3-5-5-5-5-|
A -------------------------------------|
D -------------------------------------|
G -------------------------------------|

Riff  3
E -5-5-5-5-5-5-5-5-5-5-5-5-5-5-5-5-5-5-5-5-5-5-5-5-5-5-5-5-5-5-5-5-5-5-5-5-|
A -------------------------------------------------------------------------|
D -------------------------------------------------------------------------|
G -------------------------------------------------------------------------|

Riff 4
E-6-6-6-6-6-6-1-1-1-1-2-2-2-2-4-4-4-4-|
A-------------------------------------|
D-------------------------------------|
G-------------------------------------|

Riff 5
E-5-5-5-5-5-5-5-5-6-6-6-6-6-6-6-6-|
A---------------------------------|
D---------------------------------|
G---------------------------------|

Riff 1    4 X (00:14)
Riff 2    4 X (00:42)
Riff 3    1 X (01:23)
Riff 1    4 X (01:35)
Riff 4    2 X (02:04)
Riff 2    2 X (02:18)
Riff 5    4 X (02:38)
Riff 1    2 X (03:06)
Riff 4    2 X (03:20)
Riff 1   11 X (03:34)
            
Submit corrections

comments powered by Disqus
↑ Back to top | Daemonarch Bass for Corpus Hermeticum. Lyrics for acoustic guitar and electric guitar. Tablatures and chords are parodies/interpretations of the original songs. You may use it for private study, scholarship, research or language learning purposes only