» » »

Daedalian, Punishment Tabs (ver.1)

Artists:  A B C D E F G H I J K L M N O P Q R S T U V W X Y Z # 

Punishment Tabs (ver.1)

Daedalian Tabs
 Rating:
4.2/5 (5 votes)
Punishment lessons Tabs too difficult? Try these video lessons and learn fast
1
                

Heavy Punk at its best from the quiet little band from KIRKINTILLOCH!

Intro: (G/Joy to the world)

-|----------------------------------------------------------------------------|
-|----------------------------------------------------------------------------|
-|----------------------------------------------------------------------------|
-|-542-------5--5-5-55-55-----------------------------------------------------|
-|-----532---5--5-5-55-55-----------------------------------------------------|
-|---------5-3--3-3-33-33-----------------------------------------------------|
   Pre-verse

-|----------------------------------------------------------------------------|
-|----------------------------------------------------------------------------|
-|-5-5-555--------------------------------------------------------------------|
-|-5-5-555----------5-5-555--------3-3-333--------5-5-555---------------------|
-|-3-3-333-3-565----5-5-555-565----3-3-333-565----5-5-555---565---------------|
-|---------------65-3-3-333-----65-1-1-111-----65-3-3-333-5-------------------|
            
Submit corrections

comments powered by Disqus
↑ Back to top | Daedalian Tabs for Punishment. Lyrics for acoustic guitar and electric guitar. 1 Tablatures and chords are parodies/interpretations of the original songs. You may use it for private study, scholarship, research or language learning purposes only