» » »

Pickle From A Landfill Tabs (ver.1)

Artists:  A B C D E F G H I J K L M N O P Q R S T U V W X Y Z # 

Pickle From A Landfill Tabs (ver.1)

Daedalian
Rating:
5/5 (1 vote)

Hard to play? Try these video lessons and learn fast.
                

This song is actually a breakaway band from the hugely success ful Daedalian
and was written by the Vintage Carpets, performed live for MTV europe and other musical networks, Enjoy.
Intro/Verse

-|-------------------|--------------------------------------------------------|
-|-------------------|--------------------------------------------------------|
-|-0--5-55--0--5-55--|-----------5-55555555-----------------------------------|
-|-7--5-55--7--5-55--|------9----5-55555555-----------------------------------|
-|-7--3-33--7--3-33--|---77---7--3-33333333-----------------------------------|
-|-0--------0--------|-0------------------------------------------------------|
   Chorus

-|----------------------------------------------------------------------------|
-|------4-444-55--------------------------------------------------------------|
-|-2-22-4-444-55-55-44--------------------------------------------------------|
-|-2-22-4-444-55-55-44--------------------------------------------------------|
-|-2-22-2-222-33-55-44--------------------------------------------------------|
-|-0-00----------33-22--------------------------------------------------------|
   Bridge

-|----------------------------------------------------------------------------|
-|-----------55---------------------------------------------------------------|
-|-7-77-3333-55-7777----------------------------------------------------------|
-|-7-77-3333-55-7777----------------------------------------------------------|
-|-7-77-3333-33-7777----------------------------------------------------------|
-|-5-55-1111----5555----------------------------------------------------------|
   Outro same as verse just repeated over again. ENJOOOOYYYY!!!!
            
Hard to play? Try these video lessons and learn fast. | Correct




comments powered by Disqus
↑ Back to top | Tablatures and chords are parodies/interpretations of the original songs. You may use it for private study, scholarship, research or language learning purposes only