» » »

Life Thru A Looking Glass Tabs (ver.1)

Artists:  A B C D E F G H I J K L M N O P Q R S T U V W X Y Z # 

Life Thru A Looking Glass Tabs (ver.1)

Daedalian
Rating:
5/5 (1 vote)

Hard to play? Try these video lessons and learn fast.
                

This is the new wave version of the original song. Weird effects are:

*Jet (Zoom 707-effects pedal)
*Vhalen(Zoom 707-effects pedal)

Intro:

-|----------------------------------------------------------------------------|
-|----------------------------------------------------------------------------|
-|------7------9--------55555-------------------------------------------------|
-|-5-55-7-7-77-9-9-99-5-55555-------------------------------------------------|
-|-5-55-5-7-77-7-9-99-5-33333-------------------------------------------------|
-|-3-33---5-55---7-77-3-------------------------------------------------------|
   Verse

-|----------------------------------------------------------------------------|
-|----------------------------------------------------------------------------|
-|----77-5-55/9-7-------------------------------------------------------------|
-|-55-77-5-55/9-7-------------------------------------------------------------|
-|-55-55-3-33/7-5-------------------------------------------------------------|
-|-33-------------------------------------------------------------------------|
   Pre-chorus

-|----------------------------------------------------------------------------|
-|----------------------------------------------------------------------------|
-|----------77777777-99999999-55555555----------------------------------------|
-|-55555555-77777777-99999999-55555555----------------------------------------|
-|-55555555-55555555-77777777-33333333----------------------------------------|
-|-33333333-------------------------------------------------------------------|
   Chorus

-|----------------------------------------------------------------------------|
-|----------------------------------------------------------------------------|
-|----7-77-99-5-55------------------------------------------------------------|
-|-55-7-77-99-5-55------------------------------------------------------------|
-|-55-5-55-77-3-33------------------------------------------------------------|
-|-33-------------------------------------------------------------------------|
  Bridge

-|----------------------------------------------------------------------------|
-|----------------------------------------------------------------------------|
-|----------------------------------------------------------------------------|
-|-77---7-5-------------------------------------------------------------------|
-|-77-7-----555--7/9/7--------------------------------------------------------|
-|-55----------------0--------------------------------------------------------|
            
Hard to play? Try these video lessons and learn fast. | Correct




comments powered by Disqus
↑ Back to top | Tablatures and chords are parodies/interpretations of the original songs. You may use it for private study, scholarship, research or language learning purposes only