» » »

Insomnia Of My Skin Tabs (ver.1)

Artists:  A B C D E F G H I J K L M N O P Q R S T U V W X Y Z # 

Insomnia Of My Skin Tabs (ver.1)

Daedalian
Rating:
5/5 (1 vote)

Hard to play? Try these video lessons and learn fast.
                

FFFFFFFUUUUCCCCKKKKIIIIIIIINNNNNNNGGGGGG good

-|-------12----------12--------8--------8--------5-------5-------3-------3----|
-|----10----10----10----10---6----6---6---6----5---5---5---5---3---3---3---3--|
-|-11----------11----------7--------7--------5-------5-------0-------0--------|
-|----------------------------------------------------------------------------|
-|----------------------------------------------------------------------------|
-|----------------------------------------------------------------------------|
   Verse (Bass arranged for guitar)     guitar enters and Chorus

-|----------------------------------|-----------------------------------------|
-|----------------------------------|-----------------------------------------|
-|----------------------------------|------7-77-------------------------------|
-|----------------------------------|-4-44-7-77-7-77-9-99---------------------|
-|------5-55------------------------|-4-44-5-55-7-77-9-99---------------------|
-|-2-22------5-55-7-77--------------|-2-22------5-55-7-77---------------------|
   Bridge (heavy Distortion)

-|----------------------------------------------------------------------------|
-|------9-999-----------------------------------------------------------------|
-|-5-55-9-999-9-999-9-99------------------------------------------------------|
-|-5-55-9-999-9-999-9-99------------------------------------------------------|
-|-5-55-7-777-9-999-9-99------------------------------------------------------|
-|-3-33-------7-777-7-77------------------------------------------------------|
   Outro (same as Intro but with heavy distortion) plus this wee bit

-|----------------------------------------------------------------------------|
-|-----------3---3------------------------------------------------------------|
-|---------2---2-----2---2----------------------------------------------------|
-|---4---4---------2---2-----2---2--------------------------------------------|
-|-4---4-------------------2---2----------------------------------------------|
-|----------------------------------------------------------------------------|
            
Hard to play? Try these video lessons and learn fast. | Correct




comments powered by Disqus
↑ Back to top | Tablatures and chords are parodies/interpretations of the original songs. You may use it for private study, scholarship, research or language learning purposes only