» » »

Daedalian, Falling Away Tabs (ver.1)

Artists:  A B C D E F G H I J K L M N O P Q R S T U V W X Y Z # 

Falling Away Tabs (ver.1)

Daedalian Tabs
 Rating:
4.2/5 (5 votes)
Falling Away lessons Tabs too difficult? Try these video lessons and learn fast
1
                

This is a really good song song. Mellow yet heavy!

Intro (clean)

-|----------------------------------------------------------------------------|
-|----------------------------------------------------------------------------|
-|-55---5---5---5-------------------------------------------------------------|
-|----3---2---3---------------------------------------------------------------|
-|----------------------------------------------------------------------------|
-|----------------------------------------------------------------------------|
   Chorus

-|----------------------------------------------------------------------------|
-|----------------------------------------------------------------------------|
-|----------------------------------------------------------------------------|
-|----2---3---2----2---3---2----2---3---2----2---3---2-0----------------------|
-|-33---3---3---00---0---0----------------------------------------------------|
-|---------------------------33---3---3---11---1---1--------------------------|
   Verse (clean)

-|----------------------------------------------------------------------------|
-|----------------------------------------------------------------------------|
-|-55-x-5-22-x-2--------------------------------------------------------------|
-|-55-x-5-22-x-2-55-x-5-33-x-3------------------------------------------------|
-|-33-x-3-00-x-0-55-x-5-33-x-3------------------------------------------------|
-|---------------33-x-3-11-x-1------------------------------------------------|
   Bridge (heavy distortion)                 (second guitar)

-|---------------------------------------|------------------------------------|
-|---------------------------------------|------------------------------------|
-|-77x7-77--77x7-77---------1010x10-1010-|------------------------------------|
-|-77x7-77--77x7-77-88x8-88-1010x10-1010-|-8757875787578757---5-78787878-7710-|
-|-55x5-55--55x5-55-88x8-88-8-8-x8--8-8--|-------------------------------888--|
-|------------------66x6-66--------------|------------------6-----------------|
   Outro    (clean)

-|----------------------------------------------------------------------------|
-|----------------------------------------------------------------------------|
-|----------------------------------------------------------------------------|
-|----2---3---2---------------------------------------------------------------|
-|-33---3---3---3-------------------------------------------------------------|
-|----------------------------------------------------------------------------|
            
Submit corrections

comments powered by Disqus
↑ Back to top | Daedalian Tabs for Falling Away. Lyrics for acoustic guitar and electric guitar. 1 Tablatures and chords are parodies/interpretations of the original songs. You may use it for private study, scholarship, research or language learning purposes only