>
 >
Written In Water

Written In Water Guitar Tabs

D.A.D - Written In Water chords, tabs, tablatures, lyrics

Guitar lessons | Add/correct | Request | Top 50 tabs Artists:  A B C D E F G H I J K L M N O P Q R S T U V W X Y Z 0-9

Written In Water Guitar Tabs – D.A.D

CD, Sheet music, Poster

Do you like Written In Water? Share with your friends now
Tabs
^: Palm muted
V: use vibrator or just bend ALOT up and down
/: slide down
: slide up

INTRO:

E|-----------------------------------------------------------------------------|
B|-----------------------------------------------------------------------------|
G|-----------------------------------------------------------------------------|
D|----------2-4-2-5-5-4-2-5-5-4-2-4-4---2-4-2-5-5-4-2-5-5-4-2------------------|
A|------4-4-0-2-0-3-3-2-0-3-3-2-0-4-4-4-0-2-0-3-3-2-0-3-3-2-0------------------|
E|------2-2-----------------------2-2-2----------------------------------------|

Here the rest of the band comes in:
E|-----------------------------------------------------------------------------|
B|-----------------------------------------------------------------------------|
G|------------2-4-2-5-5-4-2-5-5-4-2---------2-4-2-5-5-4-2-5-5-4-2--------------|
D|------4-4-4-2-4-2-5-5-4-2-5-5-4-2-4-4-4-4-2-4-2-5-5-4-2-5-5-4-2-4------------|
A|------4-4-4-0-2-0-3-3-2-0-3-3-2-0-4-4-4-4-0-2-0-3-3-2-0-3-3-2-0-4------------|
E|------2-2-2-----------------------2-2-2-2-----------------------2------------|

Verse:
play 3 times.
E|-----------------------------------------------------------------------------|
B|-----------------------------------------------------------------------------|
G|-----------------------------------------------------------------------------|
D|------4-5-4-2-4-5-9-9/-4-5-4-2-4-5-9-9/--------------------------------------|
A|------4-3-2-0-4-3-9-9/-4-3-2-0-4-3-9-9/--------------------------------------|
E|------2-------2---7-7/-2-------2---7-7/--------------------------------------|

Bridge:

E|-----------------------------------------------------------------------------|
B|-----------------------------------------------------------------------------|
G|-----------------------------------------------------------------------------|
D|------2-2-3-----7-2-3-----7-2-3---2-2-2---2----------------------------------|
A|------0-0-1-5---5-0-1-5---5-0-1-5-0-0-0---0----------------------------------|
E|------------3---------3---------3--------------------------------------------|

Chorus:

E|-------------------------------------------------------------------------------|
B|-------------------------------------------------------------------------------|
G|-----------2-4-2-5-5-4-2-5-5-4-2------------------2-4-2-5-5-4-2-5-5-4-2--------|
D|------4-4--2-4-2-5-5-4-2-5-5-4-2-4-4-4-4-/2-4-4-2-4-2-5-5-4-2-5-5-4-2-4--------|
A|------4-4--0-2-0-3-3-2-0-3-3-2-0-4-4-4-4-/2-4-4-0-2-0-3-3-2-0-3-3-2-0-4--------|
E|------2-2------------------------2-2-2-2-/0-2-2-----------------------2--------|

Verse:
play 3 times.
E|-----------------------------------------------------------------------------|
B|-----------------------------------------------------------------------------|
G|-----------------------------------------------------------------------------|
D|------4-5-4-2-4-5-9-9/-4-5-4-2-4-5-9-9/--------------------------------------|
A|------4-3-2-0-4-3-9-9/-4-3-2-0-4-3-9-9/--------------------------------------|
E|------2-------2---7-7/-2-------2---7-7/--------------------------------------|

Bridge:

E|-----------------------------------------------------------------------------|
B|-----------------------------------------------------------------------------|
G|-----------------------------------------------------------------------------|
D|------2-2-3-----7-2-3-----7-2-3---2-2-2---2----------------------------------|
A|------0-0-1-5---5-0-1-5---5-0-1-5-0-0-0---0----------------------------------|
E|------------3---------3---------3--------------------------------------------|

Chorus:

E|---------------------------------------------------------------------------------------|
B|---------------------------------------------------------------------------------------|
G|-----------2-4-2-5-5-4-2-5-5-4-2------------------2-4-2-5-5-4-2-5-5-4-2----------------|
D|------4-4--2-4-2-5-5-4-2-5-5-4-2-4-4-4-4-/2-4-4-2-4-2-5-5-4-2-5-5-4-2-4-4-4-4-/2-------|
A|------4-4--0-2-0-3-3-2-0-3-3-2-0-4-4-4-4-/2-4-4-0-2-0-3-3-2-0-3-3-2-0-4-4-4-4-/2-------|
E|------2-2------------------------2-2-2-2-/0-2-2-----------------------2-2-2-2-/0-------|

                                    and then: 1. riff
E|-----------------------------------------------------------------------------|
B|-----------------------------------------------------------------------------|
G|-----------2-4-2-5-5-4-2-5-5-4-2--------------------5---5---5----------------|
D|------4-4--2-4-2-5-5-4-2-5-5-4-2-4-4-4-4----4---4---5---5---5----------------|
A|------4-4--0-2-0-3-3-2-0-3-3-2-0-4-4-4-4----4---4---3---3---3----------------|
E|------2-2------------------------2-2-2-2----2---2----------------------------|

      ^ ^ ^ ^ ^ ^ ^ ^            ^ ^ ^ ^ ^ ^ ^ ^
E|-----------------------------------------------------------------------------|
B|-----------------------------------------------------------------------------|
G|---------------------5--5-5-5-------------------5----5-5---------------------|
D|----4-4-4-4-4-4-4-4--5--5-5-5--4-4-4-4-4-4-4-4--5----5-5---------------------|
A|----4-4-4-4-4-4-4-4--3--3-3-3--4-4-4-4-4-4-4-4--3----3-3---------------------|
E|----2-2-2-2-2-2-2-2------------2-2-2-2-2-2-2-2-------------------------------|

      ^ ^ ^ ^ ^ ^ ^ ^
E|-----------------------------------------------------------------------------|
B|-----------------------------------------------------------------------------|
G|-----------------------------5--5-5-5----------------------------------------|
D|----4-4-4-4-4-4-4-4----------5--5-5-5----------------------------------------|
A|----4-4-4-4-4-4-4-4----------3--3-3-3----------------------------------------|
E|----2-2-2-2-2-2-2-2----------------------------------------------------------|

then there comes something i really canīt figure out..
you can just skip it if you play it for yourself.

and then
second guitar plays: 2.2 riff
E|-------------------------------------------------------------------------------|
B|-------------------------------------------------------------------------------|
G|-------------------------------------------------------------------------------|
D|-------------------------------------------------------------------------------|
A|----------0-2-0-3-3-2-0-3-3-2-0--------------------0-2-0-3-3-2-0-3-3-2-0-------|
E|------2-2------------------------2-2-2-2-/0-2-2------------------------2-------|

and first guitar plays: 2.1 riff
E|-----------------------------------------------------------------------------|
B|-----------------------------------------------------------------------------|
G|---------------5-5-------5-5-----------------------------5---4---5---4-------|
D|------4-4------5-5-------5-5-----4---------------4---4---5---4---5---4---4---|
A|------4-4------3-3-------3-3-----4---------------4---4---3---2---3---2---4---|
E|------2-2------------------------2---------------2---2-------------------2---|

Solo by first guitar:
 and its 10 not 1 0.    *play about 12 times.
E|----------------------------------------------------------12*--13131313-14V----|
B|------------------6--101010--8--10-----6----6--8--10---------------------------|
G|-----77777777999--------------------9---7-9-----------9------------------------|
D|-------------------------------------------------------------------------------|
A|-------------------------------------------------------------------------------|
E|-------------------------------------------------------------------------------|

meanwhile the second guitar plays this:
he starts at same time as first guitar.
E|-----------------------------------------------------------------------------------------|
B|-----------------------------------------------------------------------------------------|
G|-----------------------------------------------------------------------------------------|
D|------2--2--3------7--2--3------7--2--3-----2--2--2---2----------------------------------|
A|------0--0--1--5---5--0--1--5---5--0--1--5--0--0--0---0----0-2-3-2-0-2-------------------|
E|---------------3------------3------------3---------------2-------------------------------|

Chorus:

E|----------------------------------------------------------------------------------|
B|----------------------------------------------------------------------------------|
G|-----------2-4-2-5-5-4-2-5-5-4-2------------------2-4-2-5-5-4-2-5-5-4-2-----------|
D|------4-4--2-4-2-5-5-4-2-5-5-4-2-4-4-4-4-/2-4-4-2-4-2-5-5-4-2-5-5-4-2-4-4-4-4-/2--|
A|------4-4--0-2-0-3-3-2-0-3-3-2-0-4-4-4-4-/2-4-4-0-2-0-3-3-2-0-3-3-2-0-4-4-4-4-/2--|
E|------2-2------------------------2-2-2-2-/0-2-2-----------------------2-2-2-2-/0--|

E|--------------------------------------------------------------------------------|
B|--------------------------------------------------------------------------------|
G|-----------2-4-2-5-5-4-2-5-5-4-2------------------2-4-2-5-5-4-2-5-5-4-2---------|
D|------4-4--2-4-2-5-5-4-2-5-5-4-2-4-4-4-4-/2-4-4-2-4-2-5-5-4-2-5-5-4-2-4---------|
A|------4-4--0-2-0-3-3-2-0-3-3-2-0-4-4-4-4-/2-4-4-0-2-0-3-3-2-0-3-3-2-0-4---------|
E|------2-2------------------------2-2-2-2-/0-2-2-----------------------2---------|

OUTRO:

E|-----------------------------------------------------------------------------|
B|-----------------------------------------------------------------------------|
G|-----------2-4-2-5-5-4-2-5-5-4-2-5-5-4-2-5-5-4-2-5-5-4-2-5-5-4-2-------------|
D|------4-4--2-4-2-5-5-4-2-5-5-4-2-5-5-4-2-5-5-4-2-5-5-4-2-5-5-4-2-------------|
A|------4-4--0-2-0-3-3-2-0-3-3-2-0-3-3-2-0-3-3-2-0-3-3-2-0-3-3-2-0-------------|
E|------2-2--------------------------------------------------------------------|

then it slows down bit after bit:


E|-----------------------------------------------------------------------------|
B|-----------------------------------------------------------------------------|
G|-------5-5-4-2-5-5-4-2-5-5-4-2-----------------------------------------------|
D|-------5-5-4-2-5-5-4-2-5-5-4-2-4-2-4-----------------------------------------|
A|-------3-3-2-0-3-3-2-0-3-3-2-0-4-2-4-----------------------------------------|
E|-------------------------------2-0-2-----------------------------------------|

INTRO
Verse 3 times
Bridge
Chorus
Verse 3 times
bridge
Chorus
1. riff
2.1 riff / 2.2 riff
solo / Bridge
Chorus
Outro





Comments


Popular D.A.D tabs & chords
Nineteenhundredandyesterday Chords
Down The Dusty 3rd World Road Tabs
Home Alone 2 Tabs
Jacketless In December Tabs
Jihad Tabs
Marlboro Man Tabs
Reconstrucdead Tabs
So What? 1 Tabs
Between You And Me Ukulele
Little Adict Ukulele


Song lyrics



↑ Back to top | Tablatures and chords are parodies/interpretations of the original songs. You may use it for private study, scholarship, research or language learning purposes only
© 2014 AZChords.com Contact us | Privacy policy | DMCA | Add/correct tabs | Request tabs | Top 50 tabs