>
 >
The Truth About You

The Truth About You Guitar Tabs

D.A.D - The Truth About You chords, tabs, tablatures, lyrics

Guitar lessons | Add/correct | Request | Top 50 tabs Artists:  A B C D E F G H I J K L M N O P Q R S T U V W X Y Z 0-9

The Truth About You Guitar Tabs – D.A.D

CD, Sheet music, Poster

Do you like The Truth About You? Share with your friends now
Tabs
D.A.D - The Truth About You

 |------------------------------|
 |------------------------------|
 |------------------------------|
 |-----9-10-9--xx---9---7---9---|
 |-----7-7--7--xx-5---5---5---5-|
 |---0--------------------------|


 |------------------------------|------------------------------|
 |------------------------------|------------------------------|
 |------------------------------|------------------------------|
 |-----9-10-9--xx---9---7---9---|-----9-10-9--xx---9---7---9---|
 |-----7-7--7--xx-5---5---5---5-|-----7-7--7--xx-5---5---5---5-|
 |---0--------------------------|---0--------------------------|
       yeah the truth is....                     slower and slower...


 |------------------------------|------------------------------|
 |------------------------------|------------------------------|
 |------------------------------|------------------------------|
 |----5-7-5-----5---5---7-5-----|--0-2-0----0---0-0-2-0--------|
 |--3-3-3-3---3---3---3---------|--0-0-0--0---0---0-0-0--------|
 |------------------------------|------------------------------|
              it might not...          but the change...



 |------------------------------|------------------------------|
 |------------------------------|------------------------------|
 |------------------------------|------------------------------|
 |-----9-10-9--xx---9---7---9---|-----9-10-9--xx---9---7---9---|
 |-----7-7--7--xx-5---5---5---5-|-----7-7--7--xx-5---5---5---5-|
 |---0--------------------------|---0--------------------------|
                 you found the pityfull...       yeah it translate....


 |------------------------------|------------------------------|
 |------------------------------|------------------------------|
 |------------------------------|------------------------------|
 |----5-7-5-----5---5---7-5-----|--0-2-0----0---0-0-2-0--------|
 |--3-3-3-3---3---3---3---------|--0-0-0--0---0---0-0-0--------|
 |------------------------------|------------------------------| 
             yeah worse than crazy  you're dumb


         G
         So, I say see ya 
	                  D
	 I wouldn't wanna be you' 
                       Am
	 Everything is clearer 
                              C
	 The truth about you.. 
                          G
	 You got noone to lie to 
                        D
	 Noone there to cry to 
                            Am
              I just want to say goodbye to.. 	
                                C
	 - The truth about you.. 


 |------------------------------|------------------------------|
 |------------------------------|------------------------------|
 |------------------------------|------------------------------|
 |-----9-10-9--xx---9---7---9---|-----9-10-9--xx---9---7---9---|
 |-----7-7--7--xx-5---5---5---5-|-----7-7--7--xx-5---5---5---5-|
 |---0--------------------------|---0--------------------------|
       yeah the truth is...                     Old darknesses...            

                                        
 |------------------------------|------------------------------|
 |------------------------------|------------------------------|
 |------------------------------|------------------------------|
 |----5-7-5-----5---5---7-5-----|--0-2-0----0---0-0-2-0--------|
 |--3-3-3-3---3---3---3---------|--0-0-0--0---0---0-0-0--------|
 |------------------------------|------------------------------|
             we all got our own...       I just wish...


 |------------------------------|------------------------------|
 |------------------------------|------------------------------|
 |------------------------------|------------------------------|
 |-----9-10-9--xx---9---7---9---|-----9-10-9--xx---9---7---9---|
 |-----7-7--7--xx-5---5---5---5-|-----7-7--7--xx-5---5---5---5-|
 |---0--------------------------|---0--------------------------|
                 until I'm....                   I'll always want...


 |------------------------------|------------------------------|
 |------------------------------|------------------------------|
 |------------------------------|------------------------------|
 |----5-7-5-----5---5---7-5-----|--0-2-0----0---0-0-2-0--------|
 |--3-3-3-3---3---3---3---------|--0-0-0--0---0---0-0-0--------|
 |------------------------------|------------------------------| 
              But, with you - I just want to be alone  


 	 G
              So, I say see ya 
	                  D
              I wouldn't wanna be you' 
                       Am
	 Everything is clearer 
                              C
	 The truth about you.. 
                          G
              You got noone to lie to 
                        D
	 Noone there to cry to 
                            Am
	 I just want to say goodbye to.. 	
                                C
	 - The truth about you..   


 |-------------------------|-------------------------|
 |-------------------------|-------------------------|
 |------12-11\------11-9\7-|------12-11\------11-9\7-|
 |--/12---------/12--------|--/12---------/12--------|
 |-------------------------|-------------------------|
 |-------------------------|-------------------------|



 |---------------------------------------------|-----------------------------|
 |---------------------12----------------12-12-|------------------------"""""|
 |-----12-11--11-12-14----14-12-14-12h14-------|-----16--14-12-12h14p12-12---|
 |--/12----------------------------------------|--/14--14--------------------|
 |---------------------------------------------|-----------------------------|
 |---------------------------------------------|-----------------------------|


 |---------------------------------------------|-----------------------------|
 |---17--15-15---------------15-14--12h14p12\8-|-----------------------------|
 |/14--14------14--14--12/14-------------------|12\11\9\5/7------------------|
 |---------------12----------------------------|-----------------------------|
 |---------------------------------------------|-----------------------------|
 |---------------------------------------------|-----------------------------|

 The rest is just repeated.


Enjoy!





Comments


Popular D.A.D tabs & chords
Everything Glows Bass Tabs
Hate To Say I Told You So 1 Chords
Laugh And A Half Chords
Laugh And A Half 1 Chords
Laugh N A Chords
Little Adict Chords
A New Age Moving In Tabs
Camping In Scandinavia (Intro) Tabs
Home Alone 1 Tabs
Hate To Say I Told You So Ukulele


Song lyrics



↑ Back to top | Tablatures and chords are parodies/interpretations of the original songs. You may use it for private study, scholarship, research or language learning purposes only
© 2014 AZChords.com Contact us | Privacy policy | DMCA | Add/correct tabs | Request tabs | Top 50 tabs