» » »

D.A.D, Sleeping My Day Away Tabs (ver.4)

Artists:  A B C D E F G H I J K L M N O P Q R S T U V W X Y Z # 

Sleeping My Day Away Tabs (ver.4)

D.A.D Tabs
Rating:
0/5 (0 votes)
Sleeping My Day Away lessons Tabs too difficult? Try these video lessons and learn fast
                 
 Tuning: EADGBe
 
  
   Intro: 
  
   Guitar 1:
   Am F D (Repeat chords till verse)
 
   Guitar 2:
 E|---------------------------------|
 B|---------------------------------|
 G|---------------------------------|
 D|------2-----2-----2--------------|
 A|------------------------3-----3/5|
 E|--3h5---3h5---3h5---3h5---3h5----| x2

 E|---------------------------------|
 B|---------------------------------|
 G|-----------2---------------------|
 D|-----2-----------2-----3-3/2-----|
 A|-----------------------------3/5-|
 E|-3h5---3h5---3h5---3h5-----------|

 E|---------------------------------|
 B|---------------------------------|
 G|---------------------------------|
 D|------2-----2-----2--------------|
 A|------------------------3-3/5-5/4|
 E|--3h5---3h5---3h5---3h5----------| 

 Verse Part 1:(Mumbling goodmoring and raising my head...)
 Am G C G C D Am

 Verse Part 2:(So if you wanna travel along with me....)
 Am Hm C G C D

 Chorus: Same As Intro. (scroll down to bottom for lyrics)

 Thats it. The song goes like that all through, except for the solo. Got it 
 Here:

 E|---------------------------------|
 B|---------------------------------|
 G|---------------------------------|
 D|---------------------------------|
 A|---6/8-8-8/6-6-6/4-4-4p3h4/6/8---|
 E|-6-------------------------------|

 E|---------------------------------|
 B|---------------------------------|
 G|---------------------------------|
 D|-----8-10b-8/4/6-8---4-----------|
 A|-8-8---------------6---6-8------8|
 E|---------------------------8b-6--|

 E|---------------------------------|
 B|---------------------------------|
 G|---------------------------------|
 D|--------------8----8/4/6-----10h11|
 A|----8-9--6-8b---8b-------8h9-----|
 E|-8b------------------------------|

 E|---------------------------------|
 B|---------------------10h11-------|
 G|-------------8-10-11-------------|
 D|------------8-8--8---------------|
 A|-----11h13b----------------------|
 E|-8h9-----------------------------|

 E|---------------------------------|
 B|---------------7-7h6-3-----------|
 G|-6-6-3-6-6-3-6-6-6---4-----------|
 D|-6-6-3-6-6-3-6-------------------|
 A|---------------------------------|
 E|---------------------------------|

  And thats all. E-mail suggestions, hate mails, bugs etc. to my e-mail which you can find at the top.

 And now the lyrics:
    
Mumbling goodmorning & raising my head 
A bad breath kiss to my pillow pet 
I take a look at the day turns & stay in bed 
Open my eyes when the day have died 
I turned the world and I slept allright 
Now my daymare is over I zip my jeans tight 
Oh lord won't you bless this night... 

I'm sleeping my day away 
And when the night comes to the city I say: 
I'm sleeping my day away 
Yeah! With my pale lips in the pillow I say: 
I'm sleeping my day away 
After dark is the game I play 
I'm sleeping my day away I'm sleeping my day away 

When my dreams begin I'd be proud to be letting you in 
With a smile on my face I guide our dreamboat in 
So if you wanna travel along with me 
You better sleep tight the rest of the day 
You see I could be a sleeper it's not rest I lack 
'Coz I hit the sack when the suns coming back 

I'm sleeping my day away 
And when the night comes to the city I say: 
I'm sleeping my day away 
Yeah! With my pale lips in the pillow I say: 
I'm sleeping my day away 
That after dark - is the game I play 
I'm sleeping my day, I'm sleeping my day, I'm sleeping my day 
I'm sleeping my day away 
I'm sleeping my day away 
Yeah! Now I've turned the world around yeah! I did it again 
I'm sleeping my day away 
And now I have to wear my shades down sleepers lane 
I'm sleeping my day away 
Yeah! All the good people have gone to bed again 
I'm sleeping my day away 
'Coz the devil's at work inside my brain 
I'm sleeping my day away I'm sleeping my day away 
I'm sleeping my day away I'm sleeping my day away away...
            
Submit corrections

comments powered by Disqus
↑ Back to top | D.A.D Tabs for Sleeping My Day Away. Lyrics for acoustic guitar and electric guitar. Tablatures and chords are parodies/interpretations of the original songs. You may use it for private study, scholarship, research or language learning purposes only