» » »

Point Of View Tabs (ver.1)

Artists:  A B C D E F G H I J K L M N O P Q R S T U V W X Y Z # 

Point Of View Tabs (ver.1)

D.A.D
Rating:
0/5 (0 votes)

Hard to play? Try these video lessons and learn fast.
                (Intro)
D:A:D - Point of View

(Semi acoustic guitar intro/solo)

starts
0:08 - 0:20
e|--------------------------------------------------------------------|
b|--------------------------------------------------------------------|
g|--------------------------------------------------------------------|
d|--------------------------------------------------------------------|
a|---------5~--5/7------------5~--------5~----5-----------------------|
E|---7-9------------9--9-9-7-----7-9-7-----------9--9-9-7-7-----------|


0:22 - 0:36
e|---------------------------------------------------------------------|
b|---------------------------------------------------------------------|
g|---------------------------------------------------------------------|
d|---------------------------------------------------------------------|
a|------5~-----------------------5-----------5~--5---------------------|
E|--7-9------9-7-5-9~---5-9----7---9-7---7-9-------9---5-8-5----5~~5~2~|

Chords under the intro.

e|-----------------|
b|-----------------|
g|---7----6----4---|
d|---7----7----4---|
a|---5----4----2---|
E|-----------------|

Yeah, you like a man when his mind is strong...
            
Hard to play? Try these video lessons and learn fast. | Correct




comments powered by Disqus
↑ Back to top | Tablatures and chords are parodies/interpretations of the original songs. You may use it for private study, scholarship, research or language learning purposes only