» » »

D.A.D, Monster Philosophy Tabs (ver.2)

Artists:  A B C D E F G H I J K L M N O P Q R S T U V W X Y Z # 

Monster Philosophy Tabs (ver.2)

D.A.D Tabs
 Rating:
4/5 (4 votes)
Monster Philosophy lessons Tabs too difficult? Try these video lessons and learn fast
1
                                     MONSTER PHILOSOPHY -  DAD
-------------------------------------------------------------------------------

Tuning: STANDARD


   X 2 INTRO                 ~
e|---------------------------------------------------------------------------|
B|---------------------------4-----------------------------------------------|
G|---------4-------2-4----------4--4----------2--4---2---4-------------------| 
D|------------4---------4----------------------------------------------------|
A|-----2-2-------------------------------------------------------------------|
E|---------------------------------------------------------------------------|



   X 4verse                  ~
e|---------------------------------------------------------------------------|
B|---------------------------4-----------------------------------------------|
G|---------4-------2-4----------4--4----------2--4---2---4-------------------| 
D|------------4---------4----------------------------------------------------|
A|-----2-2-------------------------------------------------------------------|
E|---------------------------------------------------------------------------|


                             ~  
e|---------------------------------------------------------------------------|
B|---------------------------5-----------------------------------------------|
G|---------4-------2-4----------4--4----------2--4---2---4-------------------| 
D|------------4---------4----------------------------------------------------|
A|-----2-2-------------------------------------------------------------------|
E|---------------------------------------------------------------------------|


   x 2 chorus
e|---------------------------------------------------------------------------|
B|---------------------------------------------------------------------------|
G|----9--10--9---9---7----7---9----------------------------------------------|
D|----9--10--9---9---7----7---9----------------------------------------------|
A|---------------------------------------------------------------------------|
E|---------------------------------------------------------------------------|

e|---------------------------------------------------------------------------|
B|---------------9---12------------------------------------------------------|
G|----9--10--9---------------------------------------------------------------|
D|----9--10--9---------------------------------------------------------------|
A|---------------------------------------------------------------------------|
E|---------------------------------------------------------------------------|


     repeat verse and chorus


   Bridge x 4

e|---------------------------------------------------------------------------|
B|---------------------------------------------------------------------------|
G|---4-4--4--4--4--4--4--4---------------------------------------------------|
D|---4-4--4--4--4--4--4--4---------------------------------------------------|
A|---2-2--2--2--2--2--2--2---------------------------------------------------|
E|---------------------------------------------------------------------------|


  x 2                        ~
e|---------------------------------------------------------------------------|
B|---------------------------4-----------------------------------------------|
G|---------4-------2-4----------4--4----------2--4---2---4-------------------| 
D|------------4---------4----------------------------------------------------|
A|-----2-2-------------------------------------------------------------------|
E|---------------------------------------------------------------------------|


x 2 chorus
e|---------------------------------------------------------------------------|
B|---------------------------------------------------------------------------|
G|----9--10--9---9---7----7---9----------------------------------------------|
D|----9--10--9---9---7----7---9----------------------------------------------|
A|---------------------------------------------------------------------------|
E|---------------------------------------------------------------------------|

e|---------------------------------------------------------------------------|
B|---------------9---12------------------------------------------------------|
G|----9--10--9---------------------------------------------------------------|
D|----9--10--9---------------------------------------------------------------|
A|---------------------------------------------------------------------------|
E|---------------------------------------------------------------------------|
    

solo
                                  br 1/1            ~
e|----------------------------------5-5-------------3------------------------|
B|----------------------------------5-5---3--5--3---3------------------------|
G|---4----------------------------------------------------4--4---------------|
D|---4-----------------------------------------------------------------------|
A|---2-----------------------------------------------------------------------|
E|---------------------------------------------------------------------------|


                                  b 1/1  b1/1
e|----------------------------------5----7-----------------------------------|
B|----------------------------------5----7-----5---5-------3-----------------|
G|---4--------------------------------------------------4--------------------|
D|---4-----------------------------------------------------------------------|
A|---2-----------------------------------------------------------------------|
E|---------------------------------------------------------------------------|


                                  b 1 1/2             b 1 1/2
e|----------------------------------------10-10--10------------------10-10---|
B|-----------------------------------12---------------12---------------------|
G|----9 10-9-----------------------------------------------------------------|
D|----9-10-9-----------------------------------------------------------------|
A|---------------------------------------------------------------------------|
E|---------------------------------------------------------------------------|

                                      H       P     P      P
e|---------------------------------------------------------------------------|
B|----------------------------------------12-10------------------------------|
G|--9--10--------------------------9--11---------11-9--------9--9------------|
D|--9--10---------------------------------------------12--9------------------|
A|---------------------------------------------------------------------------|
E|---------------------------------------------------------------------------|



                        ub½ ub½ ub½  b1/1
e|------------------------------7--------------------------------------------|
B|-----------------------7--9---9---10---------------------------------------|
G|----10--9----------9---9--11-----------------------------------------------|
D|----10--9----------9-------------------------------------------------------|
A|---------------------------------------------------------------------------|
E|---------------------------------------------------------------------------|




              break!
e|---------------------------------------------------------------------------|
B|---------------------------------------------------------------------------|
G|----10--9------------------------------------------------------------------|
D|----10--9------------------------------------------------------------------|
A|---------------------------------------------------------------------------|
E|---------------------------------------------------------------------------|

   outro: play B5  2 MEASURES D5 1 MEASURE G5 1 MEASURE 

e|---------------------------------------------------------------------------|
B|---------------------------------------------------------------------------|
G|---------------------------------------------------------------------------|
D|---------------------------------------------------------------------------|
A|---------------------------------------------------------------------------|
E|---------------------------------------------------------------------------|

| /  slide up
| \  slide down
| h  hammer-on
| p  pull-off
| ~  vibrato
| +  harmonic
| x  Mute note
            
Submit corrections

comments powered by Disqus
↑ Back to top | D.A.D Tabs for Monster Philosophy. Lyrics for acoustic guitar and electric guitar. 1 Tablatures and chords are parodies/interpretations of the original songs. You may use it for private study, scholarship, research or language learning purposes only