» » »

D.A.D, I Won't Cut My Hair Tabs (ver.1)

Artists:  A B C D E F G H I J K L M N O P Q R S T U V W X Y Z # 

I Won't Cut My Hair Tabs (ver.1)

D.A.D Tabs
 Rating:
4/5 (4 votes)
I Won't Cut My Hair lessons Tabs too difficult? Try these video lessons and learn fast
1
                D.A.D - I Wont Cut My Hair

Intro:


e ---------------------------------------
b -------------------12---------------
g --12h14^-------------14p12    (play it with wah-wah)
d---------------------------------------
a---------------------------------------
e----------------------------------------


Rythm guitar:


Em | Gm / Am | Gm | Em | Gm / Am | Gm / Am | Gm | Em |



Bass:


A:----------------------------------------
E:-----0---0-3-5-3-0----0-3-5-3-5-3-5-0---


Lead-guitar:

e ---------10------------------------------------------------------
b ------------------------------------------------------------------
g ------9------9-12-14-9---9-12-14-12-14-12-14-9
d -------------------------------------------------------------------
a ------------------------------------------------------------------- 
e -------------------------------------------------------------------

Break:

Rythm-guitar:


| C | C | A | A |


Bass:


A---3---3-3---3-3---3-3---3-0---0-0-0-0-0-0-0
E--------------------------------------------------------------


Lead-guitar:


e----------------------------------------------------------------------------
b----12---12-12---12-12---12-12---12-9---9-9-9-9-9-9
g----------------------------------------------------------------------------
d----------------------------------------------------------------------------
a----------------------------------------------------------------------------
e----------------------------------------------------------------------------


Verse:


Rythm guitar:


Em | Gm / Am | Gm | Em | Gm / Am | Gm / Am | Gm | Em |


Bass:


A:----------------------------------------
E:-----0---0-3-5-3-0----0-3-5-3-5-3-5-0---


Bridge:


Rythm Guitar:

                 C                       C
It’s not fair when people they stare 
     A                 A           (break)
I love the colours i wear


Bass:

A---3---3-3---3-3---3-3---3-0---0-0-0-0-0-0-0
E--------------------------------------------


Chorus:


Rythm guitar:

Rythm guitar:



Em | Gm / Am | Gm | Em | Gm / Am | Gm / Am | Gm | Em |


Bass:


A:----------------------------------------
E:-----0---0-3-5-3-0----0-3-5-3-5-3-5-0---


Lead-guitar:


e ---------10--------------------------------------------------------      
b -------------------------------------------------------------------      
g ------9------9-12-14-9---9-12-14-12-14-12-14-9---------------------
d -------------------------------------------------------------------       
a ------------------------------------------------------------------- 
e -------------------------------------------------------------------



2nd verse:



Verse:



Rythm guitar:



Em | Gm / Am | Gm | Em | Gm / Am | Gm / Am | Gm | Em |



Bass:


A: ------------------------------------------------------
E:-----0---0-3-5-3-0----0-3-5-3-5-3-5-0---


Bridge:


Rythm Guitar:

                 C                       C
It’s not fair when people they stare 
     A                 A           (break)
I love the colours i wear


Chorus:

Rythm guitar:


Rythm guitar:


Em | Gm / Am | Gm | Em | Gm / Am | Gm / Am | Gm | Em |



Bass:


A:----------------------------------------
E:-----0---0-3-5-3-0----0-3-5-3-5-3-5-0---


Lead-guitar:


e ---------10------------------------------------------------------      
b ------------------------------------------------------------------
g ------9------9-12-14-9---9-12-14-12-14-12-14-9----------
d -------------------------------------------------------------------
a ------------------------------------------------------------------- 
e -------------------------------------------------------------------

I diiiiiiiiiiiiiie with out my hair!!!



e ---------------------------------------------------------------
b ------------------------------------------------------------------
g ------9------9-12-14-9---9-12-14-12-14-12-14-9--------------------
d -------------------------------------------------------------------
a ------------------------------------------------------------------- 
e ------------------------------------------------------------------- 


I’m sorry I dont know the rest of the solo!


I Wont Cut My Hair 
I got hair in my ears 
I got hair in my nose 
I got hair on my back 
And between my toes 
When the time comes and my hairwash is due 
I'm gonna use one ton of shampoo 
But don't give me those sentimental eyes 
'Coz I'm proud and my hair is nice 



It's not fair when people they stare 
I love the colours I wear 
I wont cut my hair 
I wont cut my hair 
Oh no, I wont cut my hair 
'Coz I'm proud of my hair 



It's like in the funny fairytale 
I dry my hair the Rapunzel way 
You just climb up the six floors 
To my hairy home 
And I'll fix u a smoke in the blend of my own 
Yeah, I'll make you a hot pot of tea 
Take off your clothes and feel free 
And get down in my hair 
And make me insane 
Lets get airborn on a window-pain 



It's not fair when people they stare... 
I'll diiiiie without my hair 
Yeah right I play in the band 
And I would love to be your private disneyland 
I'll be your own amusement park 
Then you can ride me 
And ride me after dark 
If they send me to the rows of death 
For having illegal dope 
I will order my last meal 
Before it's the chair 
Hamburger french fries'n'coke 



Take those scissors away 
I wont cut my hair 



'Cause I'm proud and my hair is nice 
I love my hair 
I'm in love with my hair 
I'm in love with my haaaaiiiir 


Enjoy!
            
Submit corrections

comments powered by Disqus
↑ Back to top | D.A.D Tabs for I Won't Cut My Hair. Lyrics for acoustic guitar and electric guitar. 1 Tablatures and chords are parodies/interpretations of the original songs. You may use it for private study, scholarship, research or language learning purposes only