» » »

D.A.D, Im A Little Cloud Tabs (ver.1)

Artists:  A B C D E F G H I J K L M N O P Q R S T U V W X Y Z # 

Im A Little Cloud Tabs (ver.1)

D.A.D Tabs
 Rating:
4/5 (4 votes)
Im A Little Cloud lessons Tabs too difficult? Try these video lessons and learn fast
1
                D.A.D - I'm Not The Same

Intro (A Vibraphone in the song)


----12-------10-------8------7------12-13-15-----13--12----
-13---13--12---12--10--10--9-----13----------15------------
-----------------------------------------------------------
-----------------------------------------------------------
-----------------------------------------------------------
-----------------------------------------------------------



VERS:
Am                 G
When My soul's in pain
              F   E
I'm going away
Am                    G                  F    E
Going away, yeah, we're both going our ways
    Am                G 
You want me to come along
    F                E
But I'm not coming undone
     Am          G             F    E
It's never gonna be the same again


CHORUS:


E        Cm#    C                 E
Come and see my fingernails are growing
    E     Cm#      C               E
The woman at the store recalls my name
          A               Cm#            E
Yeah, I'm sorry if I was coming on as a burden
    E      Cm#  C             E
I'm never gonna be the same again


VERS:


  Am               G
I had to bring it up
             F     E

A small complaint
         Am             G

Send it up and moving on
             F      E

We'll meet again
       Am               G

So goodbye my absent friend
            F                       E

Don't know where and I don't know when
     Am           G            F     E

It's never gonna be the same again


CHORUS:


E        Cm#    C                 E
Come and see my fingernails are growing
    E     Cm#      C               E

The woman at the store recalls my name
          A               Cm#            E
Yeah, I'm sorry if I was coming on as a burden
    E      Cm#  C             E
I'm never gonna be the same again


1. SOLO: (It's easy to hear the rythm, the slides, pulls and hammering.. Or make up your own interpretation)


Rythm guitar:   Am   G   F   E   (x4)


Lead guitar:


-9-10-9-7-------------------------------------------------------
----------7---5-7-5-3-2---2-3-5-7---------------2-3-2---2-2-7---
------------------------------------0-3---0-1-3-----------------


----------------------------------------7-----------------------
-------------------------------7-8-9-10---8---------------------
-9-8-------------------7-9-8-9--------------9-8-7---------------
-7--10-7-9-10-9-7-9-10----------------------------10-7----------
-------------------------------------------------------10-7-----
------------------------------------------------------------10--


----10-12-10----------------------------------------------------
-13----------13-12-13-12----------------------------------------


CHORUS:


E        Cm#    C                 E
Come and see my fingernails are growing
    E     Cm#      C               E
The woman at the store recalls my name
          A               Cm#            E
Yeah, I'm sorry if I was coming on as a burden
    E      Cm#  C             E
I'm never gonna be the same again
    E      Cm#  C             E
I'm never gonna be the same again


Enjoy!
            
Submit corrections

comments powered by Disqus
↑ Back to top | D.A.D Tabs for Im A Little Cloud. Lyrics for acoustic guitar and electric guitar. 1 Tablatures and chords are parodies/interpretations of the original songs. You may use it for private study, scholarship, research or language learning purposes only