» » »

Golden Way Tabs (ver.1)

Artists:  A B C D E F G H I J K L M N O P Q R S T U V W X Y Z # 

Golden Way Tabs (ver.1)

D.A.D
Rating:
0/5 (0 votes)

Hard to play? Try these video lessons and learn fast.
                D.A.D - Golden Way

Intro/Vers


e:-------------------------------------------
b:-------------------------------------------
g:--------5----------------------5-----------
d:--7h5------7--5-------5-----5-----------5--
a:-------------------8-----6-----------8-----
e:----------------------------------6--------


after 2nd time, play this fill (not in verse):


e:-----------------
b:-----------------
g:-----------------
d:------------5-7--
a:------5-6-8------
e:--6-8------------


Chorus:

        Gm                       C
I will keep away from morning's grey
     Gm                   C
A private sun is shining down all day 
   Dm                Gm
Of all the golden mornings 
Dm                    C
This one's so much better 
Dm                  Gm
A golden dream is talking 
Dm                       C
Making friends with strangers 


Enjoy!
            
Hard to play? Try these video lessons and learn fast. | Correct




comments powered by Disqus
↑ Back to top | Tablatures and chords are parodies/interpretations of the original songs. You may use it for private study, scholarship, research or language learning purposes only