>
 >
Evil Twin

Evil Twin Guitar Tabs

D.A.D - Evil Twin chords, tabs, tablatures, lyrics

Guitar lessons | Add/correct | Request | Top 50 tabs Artists:  A B C D E F G H I J K L M N O P Q R S T U V W X Y Z 0-9

Evil Twin Guitar Tabs – D.A.D

CD, Sheet music, Poster

Do you like Evil Twin? Share with your friends now
Tabs
Tempo: 136 b.p.m.

Intro riff:
e:-----------------------------------------------------------------------------|
B:-----------------------------------------------------------------------------|
G:-----------------------------------------------------------------------------|
D:-----------------------------------------------------------------------------|
A:----8-8-10/12-10-8--------8-8-10/12-8------8-8-10/12-10-8-----8-10-10-10-8---|
E:-10----------------10--10---------------10----------------10---------------8-|

This is actually not what they play in the chorus, but it will do.

Chorus riff:
e:-------------------------------------------------------------|----Ending-----|
B:-------------------------------------------------------------|------1st------|
G:-------------------------------------------------------------|-----time------|
D:-------------------------------------------------------------|---------------|
A:----8-8-10/12-10-8--------8-8-10/12-8------8-8-10/12-10-8----|-8-10-10-10-8--|
E:-10----------------10--10---------------10----------------10-|--------------8|x2

e:----Ending---------------------------------|
B:-----2nd-----------------------------------|
G:----time-----------------------------------|
D:-------------------------------------------|
A:-8-10-10-10-8-10-10-10-8-10/12-10-10-8-10b-|
E:-------------------------------------------|

Pre-chorus (optional):
e:-----|
B:-----|
G:-----|
D:-----|
A:-3-/-|
E:-3-/-|

Bridge 1 riff:
e:------------------|
B:------------------|
G:--------12----10b-|
D:------------------|
A:------------------|
E:-10--10----10-----|

Bridge 2 part one riff:
e:-----------------------------|
B:-----------------------------|
G:------------------12-----10b-|
D:-----------------------------|
A:-----10-8--------------------|
E:-10--------10--10-----10-----|

Bridge 2 part two riff:
e:-----------------------------|
B:-----------------------------|
G:-----------------------------|
D:-----------------------------|
A:-5--5--5-5-7--7--7-8--8--8-8-|
E:-5--5--5-5-7--7--7-8--8--8-8-|

Solo:
e:--------------------------------------------------------------|
B:--------------------------------------------------------------|
G:--------------------------------------------------------------|
D:-----------------------10-10----10-10----10-10----10-10b--12b-|
A:-----10----8--7-x7--12-------12-------12-------12-------------|
E:-10-----10----------------------------------------------------|

e:-----------------------------------------------------------------------|
B:-----------------------------------------------------------------------|
G:-----------------------------------------------------------------------|
D:---------------------------------------------------10-10--10b--10b-----|
A:----8----8-8----------------------------7-8-10-12-------------------12-|
E:-10---10-----10---8--10-8\---3-5-7-8-10--------------------------------|

e:-----------------------------Start fading----------|
B:---------------------------------------------------|
G:-----------------14-12-12-14-----------------------|
D:-------9h10---10-----------------------------------|
A:-10h12-----------------------12\10-12-10\8-7-8-7---|
E:-------------------------------------------------8-|

Another way to play the solo is to improvise in a C-scale:
Notes in C-scale: C, D, E, F, G, A, B/H
C-scale on fretboard:
e:------------------------------------------------------12-13-15-17-19-20-22|
B:---------------------------------------------12-13-15---------------------|
G:----------------------------------9-10-12-14------------------------------|
D:--------------------------9-10-12-----------------------------------------|
A:----------------7-8-10-12-------------------------------------------------|
E:-0-1-3-5-7-8-10-----------------------------------------------------------|

If you are not familiar with improvising this song is good practice.
Just play somewhat random on the notes above.

Song arrangement:

Intro x1
Chorus x1
11 bars of silence
Pre-chorus x1
Chrorus x1
7 bars of silence
Pre-chorus x1
Chorus x1
Brigde 1 x3
Chorus x1
Bridge 2 part one x1
Bridge 2 part two x1
Bridge 2 part one x1
Bridge 2 part two x1
Pre-chorus x1
Chorus x1
Solo x1
Bridge 1 x1
Last two notes: E:-10--10-|





Comments


Popular D.A.D tabs & chords
Candybar Tabs
Eye Of The Tiger Tabs
Home Alone 1 Tabs
Indian Love Tabs
Last Mango In Paris Tabs
Laugh N A ½ Tabs
Malboro Man Tabs
Ridin With Sue Tabs
Sleeping My Day Away 4 Tabs
Id Rather Live Than Die Ukulele


Song lyrics



↑ Back to top | Tablatures and chords are parodies/interpretations of the original songs. You may use it for private study, scholarship, research or language learning purposes only
© 2014 AZChords.com Contact us | Privacy policy | DMCA | Add/correct tabs | Request tabs | Top 50 tabs