» » »

D.A.D, Candybar Tabs (ver.1)

Artists:  A B C D E F G H I J K L M N O P Q R S T U V W X Y Z # 

Candybar Tabs (ver.1)

D.A.D Tabs
Rating:
0/5 (0 votes)
Candybar lessons Tabs too difficult? Try these video lessons and learn fast
                Tuning: E A D G B E (normal)

Intro
(Repeat 2 times)
e ------------------------------------------
b ---------------------------------3-3-3-3--
g -----------------------5-5-5-5---4-4-4-4--
D ---2-2-2-2---5-5-5-5---3-3-3-3---4-4-4-4--
A ---2-2-2-2---5-5-5-5---3-3-3-3------------
E ---0-0-0-0---3-3-3-3----------------------


Verse
(Repeat 4 times)
e ------------------------------------------
b ---------------------------------3-3-3-3--
g -----------------------5-5-5-5---4-4-4-4--
D ---2-2-2-2---5-5-5-5---3-3-3-3---4-4-4-4--
A ---2-2-2-2---5-5-5-5---3-3-3-3------------
E ---0-0-0-0---3-3-3-3----------------------


Bridge
(played once)
e ------------------------------------------
b ------------------------------------------
g ------------------------------------------
D ---2-2-2-2---7-7-7-7---2-2-2-2---7-7-7-7--
A ---2-2-2-2---7-7-7-7---2-2-2-2---7-7-7-7--
E ---0-0-0-0---5-5-5-5---0-0-0-0---5-5-5-5--


Chorus
(Repeat first part 3 times and play second part once)

First part
e ------------------------------------------
b ------------------------------------------
g ---7-7-7-7---5-5-5-5----------------------
D ---7-7-7-7---5-5-5-5---7-7-7-7---5-5-5-5--
A ---5-5-5-5---3-3-3-3---7-7-7-7---5-5-5-5--
E -----------------------5-5-5-5---3-3-3-3--

Second part
e ------------------------------------------
b -----------------------3-3-3-3------------
g ---7-7-7-7-------------4-4-4-4---5-5-5-5--
D ---7-7-7-7---7-7-7-7---4-4-4-4---5-5-5-5--
A ---5-5-5-5---7-7-7-7-------------3-3-3-3--
E -------------5-5-5-5----------------------


Bridge
(played once)
e ------------------------------------------
b ------------------------------------------
g ------------------------------------------
D ---2-2-2-2---7-7-7-7---2-2-2-2---7-7-7-7--
A ---2-2-2-2---7-7-7-7---2-2-2-2---7-7-7-7--
E ---0-0-0-0---5-5-5-5---0-0-0-0---5-5-5-5--


Verse
(Repeat 4 times)
e ------------------------------------------
b ---------------------------------3-3-3-3--
g -----------------------5-5-5-5---4-4-4-4--
D ---2-2-2-2---5-5-5-5---3-3-3-3---4-4-4-4--
A ---2-2-2-2---5-5-5-5---3-3-3-3------------
E ---0-0-0-0---3-3-3-3----------------------


Bridge
(played once)
e ------------------------------------------
b ------------------------------------------
g ------------------------------------------
D ---2-2-2-2---7-7-7-7---2-2-2-2---7-7-7-7--
A ---2-2-2-2---7-7-7-7---2-2-2-2---7-7-7-7--
E ---0-0-0-0---5-5-5-5---0-0-0-0---5-5-5-5--


Chorus
(Repeat first part 3 times and play second part once)

First part
e ------------------------------------------
b ------------------------------------------
g ---7-7-7-7---5-5-5-5----------------------
D ---7-7-7-7---5-5-5-5---7-7-7-7---5-5-5-5--
A ---5-5-5-5---3-3-3-3---7-7-7-7---5-5-5-5--
E -----------------------5-5-5-5---3-3-3-3--

Second part
e ------------------------------------------
b -----------------------3-3-3-3------------
g ---7-7-7-7-------------4-4-4-4---5-5-5-5--
D ---7-7-7-7---7-7-7-7---4-4-4-4---5-5-5-5--
A ---5-5-5-5---7-7-7-7-------------3-3-3-3--
E -------------5-5-5-5----------------------


Bridge
(played once)
e ------------------------------------------
b ------------------------------------------
g ------------------------------------------
D ---2-2-2-2---7-7-7-7---2-2-2-2---7-7-7-7--
A ---2-2-2-2---7-7-7-7---2-2-2-2---7-7-7-7--
E ---0-0-0-0---5-5-5-5---0-0-0-0---5-5-5-5--


Bridge 2
(Repeat first part 3 times and play second part once) 

First part
e ------------------------------------------
b --1-1-1-1---------------------------------
g --2-2-2-2---5-5-5-5-----------------------
D --3-3-3-3---5-5-5-5---5-5-5-5-------------
A ------------3-3-3-3---5-5-5-5-------------
E ----------------------3-3-3-3-------------

Second part
e ------------------------------------------
b --1-1-1-1---------------------------------
g --2-2-2-2---5-5-5-5-----------------------
D --3-3-3-3---5-5-5-5---5-5-5-5---5-5-5-5---
A ------------3-3-3-3---5-5-5-5---5-5-5-5---
E ----------------------3-3-3-3---3-3-3-3---


Bridge
(played once)
e ------------------------------------------
b ------------------------------------------
g ------------------------------------------
D ---2-2-2-2---7-7-7-7---2-2-2-2---7-7-7-7--
A ---2-2-2-2---7-7-7-7---2-2-2-2---7-7-7-7--
E ---0-0-0-0---5-5-5-5---0-0-0-0---5-5-5-5--


Solo: E G C F


Chorus
(Repeat first part 3 times and play second part once)

First part
e ------------------------------------------
b ------------------------------------------
g ---7-7-7-7---5-5-5-5----------------------
D ---7-7-7-7---5-5-5-5---7-7-7-7---5-5-5-5--
A ---5-5-5-5---3-3-3-3---7-7-7-7---5-5-5-5--
E -----------------------5-5-5-5---3-3-3-3--

Second part
e ------------------------------------------
b -----------------------3-3-3-3------------
g ---7-7-7-7-------------4-4-4-4---5-5-5-5--
D ---7-7-7-7---7-7-7-7---4-4-4-4---5-5-5-5--
A ---5-5-5-5---7-7-7-7-------------3-3-3-3--
E -------------5-5-5-5----------------------


Solo continues


If you have comments to the tab. 
            
Submit corrections

comments powered by Disqus
↑ Back to top | D.A.D Tabs for Candybar. Lyrics for acoustic guitar and electric guitar. Tablatures and chords are parodies/interpretations of the original songs. You may use it for private study, scholarship, research or language learning purposes only