» » »

War Born Tabs (ver.1)

Artists:  A B C D E F G H I J K L M N O P Q R S T U V W X Y Z # 

War Born Tabs (ver.1)

Daath
Rating:
3/5 (5 votes)

Hard to play? Try these video lessons and learn fast.
                This is a new hardcore metal band !!!
Title : War Born
Artist : Daath
Album : The Hinderers

Intro : Heavy distortion
E|----------------------------------------------------------|
B|----------------------------------------------------------|
G|----------------------------------------------------------|
D|-------------3-4-5-5-4-3---then-5---5-7-------------------|
A|-222-22---363-3-3-3-3-3-36------3-5-3-5-------------------|
E|-000-00---------------------------3-----------------------|

Verse 1 : 
E|----------------------------------------------------------|
B|----------------------------------------------------------|
G|----------------------------------------------------------|
D|---5-4-3---5-4-3------------------------------------------|
A|--3-3-3-363-3-3-36----------------------------------------|
E|----------------------------------------------------------|

Then palm mute this part and play as fast as you can
E|----------------------------------------------------------|
B|----------------------------------------------------------|
G|----------------------------------------------------------|
D|----------------------------------------------------------|
A|--00000000000000000000000---------------------------------|
E|--22222222222222222222222---------------------------------|

Verse 2:
E|----------------------------------------------|
B|----------------------------------------------|
G|----------------------------------------------|
D|----------------0-----------------------------|
A|--5-4-3-0-5-4-3-------------------------------|
E|-3-3-3---3-3-3--------------------------------|

Chorus :
E|---------------------------------------------------------|
b|---------------------------------------------------------|
G|---------------------------------------------------------|
D|-----------------------3p5-3p5---------------------------|
a|--0-75-3-5-x(8)------0---------5-------------------------|
E|--2-53-1-3------then-2---------3-------------------------|

Then :
|----------------------------------|
|----------------------------------|
|----------------------------------|
|--5---5-7-------------------------|
|--3-5-3-5-------------------------|
|----3-----------------------------|

Then :
|---------------------------------------|
|---------------------------------------|
|---------------------------------------| And get quicker and
|---------------------------------------| quicker !!!
|---5-4-3-------------------------------|
|--3-3-3-36-----------------------------|

Then end on 
|--------------------------------------|
|--------------------------------------|
|--------------------------------------|
|--5-7-5-4-0---------------------------|
|--3-5-3-2-2---------------------------|
|--------------------------------------|

And thats it !!!!
Rate if you think its any good
Thnks guys
            
Hard to play? Try these video lessons and learn fast. | Correct




comments powered by Disqus
↑ Back to top | Tablatures and chords are parodies/interpretations of the original songs. You may use it for private study, scholarship, research or language learning purposes only