>
 >
Subturfuge

Subturfuge Guitar Tabs

Daath - Subturfuge chords, tabs, tablatures, lyrics

Guitar lessons | Add/correct | Request | Top 50 tabs Artists:  A B C D E F G H I J K L M N O P Q R S T U V W X Y Z 0-9

Subturfuge Guitar Tabs – Daath

CD, Sheet music, Poster

Do you like Subturfuge? Share with your friends now
Tabs
Band: DAATH
Tuning: CGCFAD

I just tried this by ear. I hope its right. I've probably made a few errors but i fixed
i could find. Also, There might be a few parts missing. But i dont know. I hope it works
you.

|------------------------------------------|
|------------------------------------------|
|------------------------------------------|
|-7-7-7----------------7-7-7---------------|
|-5-5-5-5-5-5-5-5-5-5--5-5-5-5-5-5-5-5-5-5-|
|-------5-5-5-5-5-5-5--------5-5-5-5-5-5-5-|


|---------------------------------------------------------------------|
|---------------------------------------------------------------------|
|---------------------------------------------------------------------|
|---------------------7-7-7-7-7-7-7-7-7-7-------7-7-7-7-7-7-7-7-7-7---|
|-5h6-6-6-5-5-5-6-6-5-5-5-5-5-5-5-5-5-5-5-6-6-5-5-5-5-5-5-5-5-5-5-5---|
|-5h6-6-6-5-5-5-6-6-5---------------------6-6-5-----------------------|

|-----------------|
|-----------------|
|-----------------|
|-----------------|
|-4h5-5-5-5-6-6-6-|
|-4h5-5-5-5-6-6-6-|

|----------------------------------------|
|----------------------------------------|
|----------------------------------------|
|----------------------------------------|
|-5\---6-5-6-3-5-6-----------------------|
|-5\---6-5-6-3-5-6-----------------------| 4x
       . . . . . .
 Tremblo picking
|----------------------------------------|
|----------------------------------------|
|----------------------------------------|
|-5-4-5-4-1-4----------------------------|
|----------------------------------------|
|----------------------------------------| 4x

|----------------------------------------|
|-\12~-13-15~-15\18-16-15----------------|
|----------------------------------------|
|----------------------------------------|
|----------------------------------------|
|----------------------------------------| 1x

|----------------------------------------|
|----------------------------------------|
|----------------------------------------|
|-7/6-6\7/6-6\7--------------------------|
|-5/4-4\5/4-4\5-6-5-3--------------------|
|---------------6-5-3--------------------| 4x

|----------------------------------------|
|----------------------------------------|
|----------------------------------------|
|----------------------------------------|
|-5\---6-5-6-3-5-6-----------------------|
|-5\---6-5-6-3-5-6-----------------------| 4x
       . . . . . .

Tremblo picking
|----------------------------------------|
|----------------------------------------|
|----------------------------------------|
|-5-6-5-3-1-4----------------------------|
|----------------------------------------|
|----------------------------------------| 4x

|----------------------------------------|
|-\12~-13-15~-15\18-16-15----------------|
|----------------------------------------|
|----------------------------------------|
|----------------------------------------|
|----------------------------------------| 2x

|-------------------------------------------|
|-------------------------------------------|
|-------------------------------------------|
|-7/6-6\7/6-6\7-----------------------------|
|-5/4-4\5/4-4\5- 6-5-3----------------------|
|---------------6-5-3-----------------------| 4x

|--------------------------------------------------------|
|--------------------------------------------------------|
|-7~-10-14-21~-19-17-14~-14\19~-17-16-14~-17-12~-12\14~--|
|--------------------------------------------------------|
|--------------------------------------------------------|
|--------------------------------------------------------|

|-------------------------|
|-------------------------|
|--14-16-17-16--14~-------|
|-------------------------|
|-------------------------|
|-------------------------| 2x

|------------------------------------------------|
|-17-14~----11-12-11-12p11-9--------7-8----------|
|--------14------------------10--10-----9-10-----|
|------------------------------------------------|
|------------------------------------------------|
|------------------------------------------------| 2x

|--------------------------------------------------|
|--------------------------------------------------|
|--------------------------------------------------|
|-7--7-7--101010101010101010101010/999999-999999---|
|-7--7-7--8-8-8-8-8-8-8-8-8-8-8-8--888888/777777---|
|-7--7-7-------------------------------------------|
     . .

Solo
|-----------------------\10-12--------------------------------11-|
|--------------\10--9-10----------13b--11---11-12-11----11-12----|
|--------\9-7-----------------------------13---------13----------|
|-\7-6-7---------------------------------------------------------|
|----------------------------------------------------------------|
|----------------------------------------------------------------|

|---------------------------------------------10---11---10-11-13-|
|-12-11--------------------11--11-12-11--11-12--------12---------|
|------13-10-11-13----13b----13--------13------------------------|
|------------------12--------------------------------------------|
|----------------------------------------------------------------|
|----------------------------------------------------------------|

|-14-13-11-10--10-11-------13-------13-16-13--13-14-15-16-13-----|
|------------12-------12----------15--------15--------------15---|
|-------------------------------16----------------------------16-|
|----------------------------------------------------------------|
|----------------------------------------------------------------|
|----------------------------------------------------------------|

|-----16-----------16-19-------19-22-19-16--16-19--16--------------|
|-15-------16-19-18------18-21------------18-----18--15-18---------|
|---------------------------------------------------------16-17-18-|
|------------------------------------------------------------------|
|------------------------------------------------------------------|
|------------------------------------------------------------------|

|--------------------------------------------------------------------|
|--------------------------------------------------------------------|
|----20\8-9-8\20\8-9\21-20\8-9-8\20\8-9\21---------------------------|
|-19--------------------------------------19\7-8\20-19\7-8-7\19------|
|--------------------------------------------------------------------|
|--------------------------------------------------------------------|

|-------------------------------------------9h10p9--9-10-11-12-13-|
|----------------------10h11p10--10-11-12-13------13--------------|
|-10h11p10--10-11-12-13--------13---------------------------------|
|---------14------------------------------------------------------|
|-----------------------------------------------------------------|
|-----------------------------------------------------------------|

|------------------------------------------------------------------------|
|------------------------------------------------------------------------|
|------------------------------------------------------------------------|
|-7/6-6\7/6-6\7/6\7/6-6\7/6-6\7/6\7/6-6\7/6-6\7--------------------------|
|-5/4-4\5/4-4\5/4\5/4-4\5/4-4\5/4\5/4-4\5/4-4\5-6-5-3--------------------|
|-----------------------------------------------6-5-3--------------------| 1x

|----------------------------------------|
|----------------------------------------|
|----------------------------------------|
|----------------------------------------|
|-5\---6-5-6-3-5-6-----------------------|
|-5\---6-5-6-3-5-6-----------------------| 4x
       . . . . . .
|-----------------------|
|-----------------------|
|-----------------------|
|-66-6------------------|
|-66-6------------------|
|-66-6-6/0-0-0-0-0-0-0--| 1x


|------------------|
|------------------|
|------------------|
|------------------|
|------------------|
|-6/0-0-0-0-0-0-0--| 5x

|---------------------------------------------------------------------------------------|
|---------------------------------------------------------------------------------------|
|---------------------------------------------------------------------------------------|
|-9-6-6-6-6-6-9-6-6-6-6-6-9-6-6-6-6-6-9-6-6-6-6-6-9-6-6-6-6-6-9-6-6-6-6-6-9-6-6-6-6-6-5-|
|-9-6-6-6-6-6-9-6-6-6-6-6-9-6-6-6-6-6-9-6-6-6-6-6-9-6-6-6-6-6-9-6-6-6-6-6-9-6-6-6-6-6-5-|
|-9-6-6-6-6-6-9-6-6-6-6-6-9-6-6-6-6-6-9-6-6-6-6-6-9-6-6-6-6-6-9-6-6-6-6-6-9-6-6-6-6-6-5-|
  . . . . . . . . . . . . . . . . . . . . . . . . . . . . . . . . . . . . . . . . . .





Comments


Popular Daath tabs & chords
Day Of Endless Light Bass Tabs
Day Of Endless Light Tabs
From The Blind Tabs
Incestuous Amplification Intro Tabs
Ovum Intro 1 Tabs
Placenta Tabs
Subterfuge Tabs
Subterfuge Intro 1 Tabs
War Born Tabs
Wilting On The Vine Tabs


Song lyrics



↑ Back to top | Tablatures and chords are parodies/interpretations of the original songs. You may use it for private study, scholarship, research or language learning purposes only
© 2014 AZChords.com Contact us | Privacy policy | DMCA | Add/correct tabs | Request tabs | Top 50 tabs