>
 >
Subterfuge

Subterfuge Guitar Tabs

Daath - Subterfuge chords, tabs, tablatures, lyrics

Guitar lessons | Add/correct | Request | Top 50 tabs Artists:  A B C D E F G H I J K L M N O P Q R S T U V W X Y Z 0-9

Subterfuge Guitar Tabs – Daath

CD, Sheet music, Poster

Do you like Subterfuge? Share with your friends now
Tabs

Im tabbing this song because it ticks me off that i cant find a halfway decent tab for 
a great song. I know not many people know of Daath, but come on. Email me at 
with any questions or comments

Tuning Drop C - C G C F A D

Key
Pm--- = palm mute
/ = slide
h= hammer on
p = pull off
t-- = tremblo picking
Intro

|------------------------------------------|
|------------------------------------------|
|------------------------------------------|
|-7-7-7----------------7-7-7---------------|
|-5-5-5-6-6-6-6-6-6-6--5-5-5-6-6-6-6-6-6-6-|
|-------6-6-6-6-6-6-6--------6-6-6-6-6-6-6-|


|--------------------------------------------------------------|
|--------------------------------------------------------------|
|--------------------------------------------------------------|
|--------------------------------------------------------------|
|-6h7-7-7-6-6-6--7-6-3-2-2-2-2-2-2-2-2---7-6-3-2-2-2-2-2-2-2-2-|
|-6h7-7-7-6-6-6--7-6-3-2-2-2-2-2-2-2-2---7-6-3-2-2-2-2-2-2-2-2-|

|----------------------------------------------------------|
|----------------------------------------------------------|
|----------------------------------------------------------|
|------------------7-7-7---------------7-7-7---------------|
|-5h6-6-6-6-6-6-6--5-5-5-6-6-6-6-6-6-6-5-5-5-6-6-6-6-6-6-6-|
|-5h6-6-6-6-6-6-6--------6-6-6-6-6-6-6-------6-6-6-6-6-6-6-|

|--------------------------------------------------------------|
|--------------------------------------------------------------|
|--------------------------------------------------------------|
|--------------------------------------------------------------|
|-6h7-7-7-6-6-6--7-6-3-2-2-2-2-2-2-2-2---7-6-3-2-2-2-2-2-2-2-2-|
|-6h7-7-7-6-6-6--7-6-3-2-2-2-2-2-2-2-2---7-6-3-2-2-2-2-2-2-2-2-|

|-----------------|
|-----------------|
|-----------------|
|-----------------|
|-5h6-6-6-6-6-6-6-|
|-5h6-6-6-6-6-6-6-|

The end of the last line of the intro leads directly into the verse (don't pause)
Verse

pm---------------------------------|
|----------------------------------|
|----------------------------------|
|----------------------------------|
|----------------------------------|
|-5-6-5-3-3-2-1-2--5-6-5-3-3-2-1-2-|
|-5-6-5-3-3-2-1-2--5-6-5-3-3-2-1-2-|
 Its your fault   You tell your tales of loss

pm---------------------------------|
|----------------------------------|
|----------------------------------|
|----------------------------------|
|----------------------------------|
|-5-6-5-3-3-2-1-2--5-6-5-3-3-2-1-2-|
|-5-6-5-3-3-2-1-2--5-6-5-3-3-2-1-2-|
You claim that's not your fault, but you don't see yourself

|----------------------------------------|
|----------------------------------------|
|----------------------------------------|
|----------------------------------------|
|-9h10-6-10-9-6-9-10--9h10-6-9-10-6-9-10-|
|----------------------------------------|
  Inside your tomb   The end shall never reslove

|----------------------------------------|
|----------------------------------------|
|----------------------------------------|
|----------------------------------------|
|-9h10-6-10-9-6-9-10--9h10-6-9-10-6-9-10-|
|----------------------------------------|
  Your filthy thoughts rejoice in its LIE!

|------------------------------------------|
|-12--12-12-12-12h15-15h18--15p14h15-14h15-|
|------------------------------------------|
|------------------------------------------|
|------------------------------------------|
|------------------------------------------|

|-------------------------------|
|-------------------------------|
|-------------------------------|
|-8-7-8-7-8-----8-7-8-7-8-------|
|-6-5-6-5-6-6-5-6-5-6-5-6-6-5---|
|-----------6-5-----------6-5---|
your face is coverd in,webs spun in words without worth

|-------------------------------|
|-------------------------------|
|-------------------------------|
|-8-7-8-7-8-----8-7-8-7-8-------|
|-6-5-6-5-6-6-5-6-5-6-5-6-6-5---|
|-----------6-5-----------6-5---|
Entangled in my world  I digest my offerings

pm---------------------------------|
|----------------------------------|
|----------------------------------|
|----------------------------------|
|----------------------------------|
|-5-6-5-3-3-2-1-2--5-6-5-3-3-2-1-2-|
|-5-6-5-3-3-2-1-2--5-6-5-3-3-2-1-2-|

pm---------------------------------|
|----------------------------------|
|----------------------------------|
|----------------------------------|
|----------------------------------|
|-5-6-5-3-3-2-1-2--5-6-5-3-3-2-1-2-|
|-5-6-5-3-3-2-1-2--5-6-5-3-3-2-1-2-|

|----------------------------------------|
|----------------------------------------|
|----------------------------------------|
|----------------------------------------|
|-9h10-6-10-9-6-9-10--9h10-6-9-10-6-9-10-|
|----------------------------------------|
                       Your mind's unable to solve

|----------------------------------------|
|----------------------------------------|
|----------------------------------------|
|----------------------------------------|
|-9h10-6-10-9-6-9-10--9h10-6-9-10-6-9-10-|
|----------------------------------------|
The end shall never resolve  Your filthy thoughts rejoice In it's LIE!

|------------------------------------------|
|-12--12-12-12-12h15-15h18--15p14h15-14h15-|
|------------------------------------------|
|------------------------------------------|
|------------------------------------------|
|------------------------------------------|

|------------------------------------------|
|-12--12-12-12-12h15-15h18--15p14h15-14h15-|
|------------------------------------------|
|------------------------------------------|
|------------------------------------------|
|------------------------------------------|

|-------------------------------|
|-------------------------------|
|-------------------------------|
|-8-7-8-7-8-----8-7-8-7-8-------|
|-6-5-6-5-6-6-5-6-5-6-5-6-6-5---|
|-----------6-5-----------6-5---|
your face is coverd in,webs spun in words without worth

|-------------------------------|
|-------------------------------|
|-------------------------------|
|-8-7-8-7-8-----8-7-8-7-8-------|
|-6-5-6-5-6-6-5-6-5-6-5-6-6-5---|
|-----------6-5-----------6-5---|
Entangled in my world  I digest my offerings

Eyal Levi's solo

|----0-4\11b-9-7-4--4\9-7-5-4--7p4----------------------------|
|-2---------------------------------7-9--11h12-11-9---11h12-9-|
|-------------------------------------------------------------|
|-------------------------------------------------------------|
|-------------------------------------------------------------|
|-------------------------------------------------------------|

|--------------------------------------------------|
|-12-9-5-7-4-5-4-5--12-9-5-4-5-4-5--12-9-5-4-5-4-5-|
|--------------------------------------------------|
|--------------------------------------------------|
|--------------------------------------------------|
|--------------------------------------------------|

   pm---
|----------------------|
|----------------------|
|-2--2-2---------------|
|-2--2-2-9-9-9-9-9-9-9-|
|-0--0-0-7-7-7-7-7-7-7-|
|----------------------|
Lost consumed inside mad-

   pm---
|----------------------|
|----------------------|
|-2--2-2---------------|
|-2--2-2-9-9-9-9-9-9-9-|
|-0--0-0-7-7-7-7-7-7-7-|
|----------------------|
ness Bile, spewing forth foun-

   pm---
|----------------------|
|----------------------|
|-2--2-2---------------|
|-2--2-2-9-9-9-9-9-9-9-|
|-0--0-0-7-7-7-7-7-7-7-|
|----------------------|
tains, it excludes petty fail-

 pm---
|----------------------|
|----------------------|
|-2--2-2---------------|
|-2--2-2-9-9-9-9-9-9-9-|
|-0--0-0-7-7-7-7-7-7-7-|
|----------------------|
ure, You're so blind for too long

Emil's solo

|------------------------10-12--------------------------------11-|
|--------------\10--9-10----------13b--11---11-12-11----11-12----|
|--------9-7\-----------------------------13---------13----------|
|-/7-6-7---------------------------------------------------------|
|----------------------------------------------------------------|
|----------------------------------------------------------------|

|---------------------------------------------10---11---10-11-13-|
|-12-11--------------------11--11-12-11--11-12--------12---------|
|------13-10-11-13----13b----13--------13------------------------|
|------------------12--------------------------------------------|
|----------------------------------------------------------------|
|----------------------------------------------------------------|

|-14-13-11-10--10-11-------13-------13-16-13--13-14-15-16-13-----|
|------------12-------12----------15--------15--------------15---|
|-------------------------------16----------------------------16-|
|----------------------------------------------------------------|
|----------------------------------------------------------------|
|----------------------------------------------------------------|

|-----16-----------16-19-------19-22-19-16--16-19--16--------------|
|-15-------16-19-18------18-21------------18-----18--15-18---------|
|---------------------------------------------------------16-17-18-|
|------------------------------------------------------------------|
|------------------------------------------------------------------|
|------------------------------------------------------------------|

tremblo part, listen to song for # of times you pick each note
     t-----------------------------------------------------------|
|----------------------------------------------------------------|
|----20\8-9-8\20\8-9\21-20\8-9-8\20\8-9\21-----------------------|
|-19--------------------------------------19\7-8\20-19\7-8-7\19--|
|----------------------------------------------------------------|
|----------------------------------------------------------------|
|----------------------------------------------------------------|

|-------------------------------------------9h10p9--9-10-11-12-13-|
|----------------------10h11p10--10-11-12-13------13--------------|
|-10h11p10--10-11-12-13--------13---------------------------------|
|---------14------------------------------------------------------|
|-----------------------------------------------------------------|
|-----------------------------------------------------------------|

|-------------------------------|
|-------------------------------|
|-------------------------------|
|-8-7-8-7-8-----8-7-8-7-8-------|
|-6-5-6-5-6-6-5-6-5-6-5-6-6-5---|
|-----------6-5-----------6-5---|
your face is coverd in,webs spun in words without worth

|-------------------------------|
|-------------------------------|
|-------------------------------|
|-8-7-8-7-8-----8-7-8-7-8-------|
|-6-5-6-5-6-6-5-6-5-6-5-6-6-5---|
|-----------6-5-----------6-5---|
Entangled in my world  I digest my offerings

pm---------------------------------|
|----------------------------------|
|----------------------------------|
|----------------------------------|
|----------------------------------|
|-5-6-5-3-3-2-1-2--5-6-5-3-3-2-1-2-|
|-5-6-5-3-3-2-1-2--5-6-5-3-3-2-1-2-|
 Its your fault   You tell your tales of loss

pm---------------------------------|
|----------------------------------|
|----------------------------------|
|----------------------------------|
|----------------------------------|
|-5-6-5-3-3-2-1-2--5-6-5-3-3-2-1-2-|
|-5-6-5-3-3-2-1-2--5-6-5-3-3-2-1-2-|
You claim that's not your fault, but you don't see yourself

          pm---       pm-----|
|----------------------------|
|----------------------------|
|----------------------------|
|----------------------------|
|-10h11p10-----10h11p10------|
|----------0000--------0000--|
Inside your tomb! insde your tomb
          pm---       pm-----|
|----------------------------|
|----------------------------|
|----------------------------|
|----------------------------|
|-10h11p10-----10h11p10------|
|----------0000--------0000--|
Inside your tomb! insde your tomb

pm------------------------------------|
|-------------------------------------|
|-------------------------------------|
|-------------------------------------|
|-------------------------------------|
|-6-9-6-0-0--6-9-6-0-0--6-9-6-0-0--0--|
|-6-9-6-0-0--6-9-6-0-0--6-9-6-0-0--0--|
tomb tomb tomb tomb tomb tomb tomb

and thats it.





Comments


Popular Daath tabs & chords
Day Of Endless Light Bass Tabs
Blender For The Baby Tabs
Filter Intro Tabs
From The Blind Tabs
From The Blind 2 Tabs
From The Blind Intro Tabs
Incestuous Amplification Intro Tabs
Ovum Intro 1 Tabs
Ovum Intro 2 Tabs
Subturfuge Tabs


Song lyrics



↑ Back to top | Tablatures and chords are parodies/interpretations of the original songs. You may use it for private study, scholarship, research or language learning purposes only
© 2014 AZChords.com Contact us | Privacy policy | DMCA | Add/correct tabs | Request tabs | Top 50 tabs