» » »

Daan, Metropolitan Tabs (ver.1)

Artists:  A B C D E F G H I J K L M N O P Q R S T U V W X Y Z # 

Metropolitan Tabs (ver.1)

Daan Tabs
 Rating:
4/5 (4 votes)
Metropolitan lessons Tabs too difficult? Try these video lessons and learn fast
                E    022100
F#m  244222
G#m  466444
A    577655
B    799877

Playing tips: guitar I  (Daan)           : is silent during the verses, he plays the 
strummed during the chorus and interlude
              guitar II (Steven Janssens): picks the base note and the fifth during 
& chorus (like the intro), fingerpicking chords during interlude

Intro:

Guitar I
e||--12------12--12--|-11------11--11--|-12------12--12--|-12----12----12--||
B||------12----------|-----12----------|-----12----------|----12----12-----||
G||------------------|-----------------|-----------------|-----------------||
D||------------------|-----------------|-----------------|-----------------|| 3x
A||------------------|-----------------|-----------------|-----------------||
E||------------------|-----------------|-----------------|-----------------||

Guitar II:
           E                 G#m                A                       B
e||------------------|-----------------|-----------------|-----------------||
B||------------------|-----------------|-----------------|-----------------||
G||------------------|-----------------|-----------------|-----------------||
D||------------------|-----------------|-----------------|-----------------|| 3x
A||----2---2---2---2-|---6---6---6---6-|---7---7---7---7-|---7---7---7---9-||
E||--0---0---0---0---|-4---4---4---4---|-5---5---5---5---|-5---5---5---7---||

Then,

Guitar I
e||--12------12--12--|-11------11--11--|-12------12--12--|-12----12----12--||
B||------12----------|-----12----------|-----12----------|----12----12-----||
G||------------------|-----------------|-----------------|-----------------||
D||------------------|-----------------|-----------------|-----------------|| 1x
A||------------------|-----------------|-----------------|-----------------||
E||------------------|-----------------|-----------------|-----------------||

Guitar II:
           E(VII)            G#m                A                       B
e||------------------|-----------------|-----------------|-----------------||
B||------------------|-----------------|-----------------|-----------------||
G||----9--9----9---9-|-----------------|-----------------|-----------------||
D||--7---7---7---7---|-----------------|-----------------|-----------------|| 1x
A||------------------|---6---6---6---6-|---7---7---7---7-|---7---7---7---9-||
E||------------------|-4---4---4---4---|-5---5---5---5---|-5---5---5---7---||

Repeat all this twice

E
Have a little, girl clean
G#m                           A         B
knows I was conceived the day he died
    F#m                                                          A
I’m otherwise not pleased to replace a person with his search of style
  E                                    G#m                A     B
I know that I will work and being paid enough to carry my cross
      F#m                                                                  A       B
But I don’t deserve this ticket now by a underground that turned us ‘round myself

E               G#m                   A         B
Don’t believe a thing ‘bout what they tell you
E                G#m              A       B
I don’t like the speed at wich we drive
E                 G#m               A       A
Sell their hearts before their arms retires
E(VII)                     G#m      A
Sneaking outdoors with the frequent flyers

Interlude: E      G#m  A B
           E      G#m  A B
           E      G#m  A B
           E(VII) G#m  A

E
Have a little, talk a little
G#m                           A         B
knows I was conceived the day he died
    F#m                                                          A
I’m otherwise not pleased to replace a person with his search of style
  E                                    G#m                A     B
I know that I will work and being paid enough to carry my cross
      F#m                                                                  A       B
But I don’t deserve this ticket now by a underground that turned us ‘round myself


E               G#m                   A         B
Don’t believe a thing ‘bout what they tell you
E                G#m              A       B
I don’t like the speed at wich we drive
E                 G#m               A       A
Sell their hearts before their arms retires
E(VII)                     G#m      A
Sneaking outdoors with the frequent flyers

outro: same as intro

Lyrics aren't 100% correct, but now you have a guideline how to play the song.
            
Submit corrections

comments powered by Disqus
↑ Back to top | Daan Tabs for Metropolitan. Lyrics for acoustic guitar and electric guitar. Tablatures and chords are parodies/interpretations of the original songs. You may use it for private study, scholarship, research or language learning purposes only