» » »

Valley Of Chrome Tabs (ver.1)

Artists:  A B C D E F G H I J K L M N O P Q R S T U V W X Y Z # 

Valley Of Chrome Tabs (ver.1)

Cypress Hill
Rating:
0/5 (0 votes)

Hard to play? Try these video lessons and learn fast.
                Song in dropped-D tuning (DADGBE).

Use distortion troughout the whole song.

INTRO/Verse:
Let last note ring ~~
E|-----------6~~~-------|
B|--6---5---------------|
G|----------------------|
D|----------------------|
A|----------------------|
D|----------------------|

Chorus:
E|-----------------------------|
B|-----------------------------|
G|-----------------------------|
D|--0-77-0-66-0-33-xxx-555-5---|
A|--0-77-0-66-0-33-xxx-555-5---|
D|--0-77-0-66-0-33-xxx-555-5---|

Bridge: (sounds like palm muting DAD strings open)
E|----------000---|
B|----------000---|
G|----------000---|
D|--0-00-0--------|
A|--0-00-0--------|
D|--0-00-0--------|
pm  . .. .

There are other parts to this song, the bridge is probably wrong,
but it sorta sounds like a bunch of noice and bass from the 
drum trigger.  I put this tab on here as a building
block for people to work off of, im not saying its correct
but its not bad for having nothing on here.  Comments,
            
Hard to play? Try these video lessons and learn fast. | Correct




comments powered by Disqus
↑ Back to top | Tablatures and chords are parodies/interpretations of the original songs. You may use it for private study, scholarship, research or language learning purposes only