» » »

Cypress Hill, Trouble Seeker Tabs (ver.1)

Artists:  A B C D E F G H I J K L M N O P Q R S T U V W X Y Z # 

Trouble Seeker Tabs (ver.1)

Cypress Hill Tabs
 Rating:
4/5 (5 votes)
Trouble Seeker lessons Tabs too difficult? Try these video lessons and learn fast
                Ok, this is my first Tab EVER, so please be easy.
This song is in Drop D half a step down, so drop C#.
There are multiple guitars going on at once in this song, but for the most part i only have one.

Key.
~ Let ring
PM Palm Mute notes indicated by dots at the bottom.

---Intro---

D#|-10--10-1010-1010-10-1010-| and so on.
A#|--------------------------|
F#|--------------------------|
C#|--------------------------|
G#|--------------------------|
C#|--------------------------| (tens)
This basically goes throughout most of the entire song.

Another guitar then enters with...

D#|-------------------------|
A#|-------------------------|
F#|-------------------------|
C#|--8-7-0~-----------------|
G#|--8-7-0~-----------------|
C#|--8-7-0~-----------------|

This repeats several times

---Verse---

D#|-------------------------|
A#|-------------------------|
F#|-------------------------|
C#|--8-7-0-0----------------|
G#|--8-7-0-0----------------|
C#|--8-7-0-0----------------|
PM   . . . .
Easy as pie. Repeat.


---PreChorus---

D#|-------------------------|
A#|-------------------------|
F#|-------------------------|
C#|--7-8-7---4-5-4----------|
G#|--7-8-7---4-5-4----------|
C#|--7-8-7---4-5-4----------|
This is played twice (its during the high pitched...noise...thing..)


D#|-------------------------|
A#|-------------------------|
F#|-------------------------|
C#|-0-0--8-7-0-0------------|(Goes after the above part)
G#|-0-0--8-7-0-0------------|
C#|-0-0--8-7-0-0------------|
PM  . . . . . .

Ok, do those two parts again, then this.

D#|------------------------------|
A#|------------------------------|
F#|------------------------------|
C#|--4--5----7-8-7----12-13-12---|
G#|--4--5----7-8-7----12-13-12---|
C#|--4--5----7-8-7----12-13-12---| (twelves and thirteens)

D#|-------------------------|
A#|-------------------------|
F#|-------------------------|
C#|-0-0--8-7-0-0------------|(Goes after the above part..again)
G#|-0-0--8-7-0-0------------|
C#|-0-0--8-7-0-0------------|
PM  . . . . . .

Then,this part again
D#|-------------------------|
A#|-------------------------|
F#|-------------------------|
C#|--7-8-7---4-5-4----------|
G#|--7-8-7---4-5-4----------|
C#|--7-8-7---4-5-4----------| x2

---Chorus 1---

D#|-------------------------|
A#|-------------------------|
F#|-------------------------|
C#|--5~----8~----13~--------|
G#|--5~----8~----13~--------|
C#|--5~----8~----13~--------| (thirteen)

Then,this part AGAIN!
D#|-------------------------|
A#|-------------------------|
F#|-------------------------|
C#|--7-8-7---4-5-4----------|
G#|--7-8-7---4-5-4----------|
C#|--7-8-7---4-5-4----------| x4

D#|-------------------------|
A#|-------------------------|
F#|-------------------------|
C#|--5~----1~----8~---------|
G#|--5~----1~----8~---------|
C#|--5~----1~----8~---------|

then

D#|-------------------------|
A#|-------------------------|
F#|-------------------------|
C#|-0~---------8-7-0~-------|
G#|-0~---------8-7-0~-------|
C#|-0~---------8-7-0~-------|

Do the 8-7-0 intro riff a couple of times and it leads to Verse 2,
which is the same as verse 1, and then the prechorus which is also the same.


---Chorus 2---

Chorus 2 has only minor differences then chorus 1.

D#|-------------------------|
A#|-------------------------|
F#|-------------------------|
C#|--5~----8~----13~--------|
G#|--5~----8~----13~--------|
C#|--5~----8~----13~--------| (thirteen)

Then,this part AGAIN!
D#|-------------------------|
A#|-------------------------|
F#|-------------------------|
C#|--7-8-7---4-5-4----------|
G#|--7-8-7---4-5-4----------|
C#|--7-8-7---4-5-4----------| x4

D#|-------------------------|
A#|-------------------------|
F#|-------------------------|
C#|--5~----1~----8~---------|
G#|--5~----1~----8~---------|
C#|--5~----1~----8~---------|

D#|-------------------------|
A#|-------------------------|
F#|-------------------------|
C#|--7-8-7---4-5-4----------|
G#|--7-8-7---4-5-4----------|
C#|--7-8-7---4-5-4----------| x4

go through all that twice and end on

D#|-------------------------|
A#|-------------------------|
F#|-------------------------|
C#|-0~----------------------|
G#|-0~----------------------|
C#|-0~----------------------|

---Bridge/Interlude/Breakedown/Whateveryouwannacallit---

I dont have the paper i tabbed this on at the moment X( but i think i remember it. I 
the frets but not the strings, so it might be a string lower.

This starts as soon as the last note of the second chorus is played.

I put the notes in groups of 4 instead of however long they drag out.
D#|-----------------------------------------------------------|
A#|---------8-7-8-7-11-10-11-10-14-13-14-13-16-15-16-15-------|
F#|-8-7-8-7---------------------------------------------------|
C#|-----------------------------------------------------------|
G#|-----------------------------------------------------------|
C#|-----------------------------------------------------------|
ALLLLLLLL OF THIS IS PALM MUTED


After this just slide back on the chorus and repeat chorus 2.

---Outro---
   (this one probably isnt right)
D#|-----------------------|
A#|-----------------------|
F#|-----------------------|
C#|-----------------------|
G#|-----------------------|
C#|-1-0-1-0---------------|
Repeat
All Palm muted.


Well this was my first tab, hope it isnt too bad.
            
Submit corrections

comments powered by Disqus
↑ Back to top | Cypress Hill Tabs for Trouble Seeker. Lyrics for acoustic guitar and electric guitar. Tablatures and chords are parodies/interpretations of the original songs. You may use it for private study, scholarship, research or language learning purposes only