» » »

Cypress Hill, Trouble Tabs (ver.2)

Artists:  A B C D E F G H I J K L M N O P Q R S T U V W X Y Z # 

Trouble Tabs (ver.2)

Cypress Hill Tabs
 Rating:
4/5 (4 votes)
Trouble lessons Tabs too difficult? Try these video lessons and learn fast
                
Drop your E string to a D (drop D tuning)

Guitar 1
e|------------------------------------------------|
B|------------------------------------------------|
G|------------------------------------------------|
D|-----------------------------0------------------|
A|--------2---------3----------5------------------|
D| ---2-------2/3--------5------------------------|

Guitar 2                    |-this change every 3rd time-|              do some hammering and pulling off listen to 
e|----7------10-8----7------|-7---5----7-----------------|                        the song
B|--------------------------|----------------------------|
G|------------------------:-|----------------------------|
D|------------------------:-|----------------------------|
A|--------------------------|----------------------------|
D|--------------------------|----------------------------|

 Chorus 
e|----------------------|
B|----------------------|
G|----------------------|
D|---2-2-2-2-0-0-3-3----|
A|---2-2-2-2-0-0-3-3----|
D|---2-2-2-2-0-0-3-3----|

As the wise South African band Four Inches Thick said..."It's Plain And Simple...."
            
Submit corrections

comments powered by Disqus
↑ Back to top | Cypress Hill Tabs for Trouble. Lyrics for acoustic guitar and electric guitar. Tablatures and chords are parodies/interpretations of the original songs. You may use it for private study, scholarship, research or language learning purposes only