» » »

Tequila Sunrise Tabs (ver.2)

Artists:  A B C D E F G H I J K L M N O P Q R S T U V W X Y Z # 

Tequila Sunrise Tabs (ver.2)

Cypress Hill
Rating:
0/5 (0 votes)

Hard to play? Try these video lessons and learn fast.
                this is a really easy song but has a tight ass beat:

E----------------------------------------------------------------
B----------------------------------------------------------------
G---9-9---7---9---10---12-12--10--12---9--------------------------------
D----------------------------------------------------------------
A----------------------------------------------------------------
E----------------------------------------------------------------

just keep repeating through out song


E----------------------------------------------------------------
B----------------------------------------------------------------
G---9-9---7---9---10---12-12--10--12---9--------------------------------
D----------------------------------------------------------------
A----------------------------------------------------------------
E----------------------------------------------------------------



E----------------------------------------------------------------
B----------------------------------------------------------------
G---9-9---7---9---10---12-12--10--12---9--------------------------------
D----------------------------------------------------------------
A----------------------------------------------------------------
E----------------------------------------------------------------



E----------------------------------------------------------------
B----------------------------------------------------------------
G---9-9---7---9---10---12-12--10--12---9--------------------------------
D----------------------------------------------------------------
A----------------------------------------------------------------
E----------------------------------------------------------------




E----------------------------------------------------------------
B----------------------------------------------------------------
G---9-9---7---9---10---12-12--10--12---9--------------------------------
D----------------------------------------------------------------
A----------------------------------------------------------------
E----------------------------------------------------------------



E----------------------------------------------------------------
B----------------------------------------------------------------
G---9-9---7---9---10---12-12--10--12---9--------------------------------
D----------------------------------------------------------------
A----------------------------------------------------------------
E----------------------------------------------------------------

when it gets to that part "tequila sunrise with the bloodshot eyes..." pause and then play this one time:

E----------------------------------------------------------------
B----------------------------------------------------------------
G---12-12--10--12---9--------------------------------
D----------------------------------------------------------------
A----------------------------------------------------------------
E----------------------------------------------------------------

then start over: 

E----------------------------------------------------------------
B----------------------------------------------------------------
G---9-9---7---9---10---12-12--10--12---9--------------------------------
D----------------------------------------------------------------
A----------------------------------------------------------------
E----------------------------------------------------------------
            
Hard to play? Try these video lessons and learn fast. | Correct




comments powered by Disqus
↑ Back to top | Tablatures and chords are parodies/interpretations of the original songs. You may use it for private study, scholarship, research or language learning purposes only