» » »

Rise Up Bass tabs (ver.1)

Artists:  A B C D E F G H I J K L M N O P Q R S T U V W X Y Z # 

Rise Up Bass tabs (ver.1)

Cypress Hill
Rating:
5/5 (1 vote)

Tabs too difficult? Try these video lessons and learn fast.
                I hope its good :D:D:D
Verse                x8
G|--------------------|
D|--------------------|
A|--------------------| 
E|--5\--5\--5\--5\-3/-|

Chorus                                                                  x2
G|-----------------------------------------------------------------------|
D|---567---------------------------------567-----------------------------|
A|-0-----0-345----------3---7-77-6-5---0-----0-345----------3---7-77-567-| 
E|--------------0--3--5---5-------------------------0--3--5---5----------|

Verse x8
Chorus x2

Bridge                                       x4
G|--------------------------------------------|
D|-55--55757-55--55757-55--55757-55--5--------|
A|--------------------------------------------| 
E|--------------------------------------3--5--|

Breakdown           x4       x1
G|-------------------||-------|
D|-------------------||-------|
A|-------------------||-------|
E|-0---00---0---00---||-5/-5/-|

Verse x4
Chorus x2

One of the best songs I've heard, TURN THE SOUND UP!!!
            
Tabs too difficult? Try these video lessons and learn fast.


comments powered by Disqus
↑ Back to top | Tablatures and chords are parodies/interpretations of the original songs. You may use it for private study, scholarship, research or language learning purposes only