» » »

Cypress Hill, Lil' Putos Bass tabs (ver.1)

Artists:  A B C D E F G H I J K L M N O P Q R S T U V W X Y Z # 

Lil' Putos Bass tabs (ver.1)

Cypress Hill Tabs
Rating:
0/5 (0 votes)
Lil' Putos lessons Tabs too difficult? Try these video lessons and learn fast
                
For questions, comments, feedback, an outline of the timing, write the above
address.

(4/4)(91 bpm)
Standard tuning

|-R-| - rest for one measure
R - quarter rest
r - eighth rest

Intro:
|---|---|---|--------------6-|--------------6-|--------------6-|
|---|---|---|----------------|----------------|----------------|
|---|---|---|----------------|----------------|----------------|
|-R-|-R-|-R-|R---R---R---r---|5-4-R---5-4-r---|5-4-R---5-4-r---|

|--------------6-|--------------6-|
|----------------|----------------|
|----------------|----------------|
|5-4-R---5-4-r---|5-4-R---5-4-r---|

Verse 1: (0:20)
|--------------6-|--------------6-|--------------6-|----------------|
|----------------|----------------|----------------|----------------|
|----------------|----------------|----------------|----------------|
|5-4-R---5-4-r---|5-4-R---5-4-r---|5-4-R---5-4-r---|4-4-R---4-4-R---|

|--------------6-|--------------6-|--------------6-|--------------6-|
|----------------|----------------|----------------|----------------|
|----------------|----------------|----------------|----------------|
|5-4-R---5-4-r---|5-4-R---5-4-r---|5-4-R---5-4-r---|5-4-R---5-4-r---|

|--------------6-|--------------6-|--------------6-|----------------|
|----------------|----------------|----------------|----------------|
|----------------|----------------|----------------|----------------|
|5-4-R---5-4-r---|5-4-R---5-4-r---|5-4-R---5-4-r---|4-4-R---4-4-R---|

Chorus: (x8)(0:51)
|--------------6-|
|----------------|
|----------------|
|5-4-R---5-4-r---|

Verse 2: (1:13)
|----------------|--------------6-|--------------6-|--------------6-|
|----------------|----------------|----------------|----------------|
|----------------|----------------|----------------|----------------|
|4-4-R---4-4-R---|4-4-R---4-4-r---|5-4-R---5-4-r---|5-4-R---5-4-r---|

|--------------6-|--------------6-|--------------6-|--------------6-|
|----------------|----------------|----------------|----------------|
|----------------|----------------|----------------|----------------|
|5-4-R---5-4-r---|5-4-R---5-4-r---|5-4-R---5-4-r---|5-4-R---5-4-r---|

|--------------6-|--------------6-|--------------6-|----------------|
|----------------|----------------|----------------|----------------|
|----------------|----------------|----------------|----------------|
|5-4-R---5-4-r---|5-4-R---5-4-r---|5-4-R---5-4-r---|4-4-R---4-4-R---|

Chorus (x8)

Verse 3: (2:05)
|----------------|----------------|----------------|---|--------------6-|
|----------------|----------------|----------------|---|----------------|
|----------------|----------------|----------------|---|----------------|
|4-4-R---4-4-R---|4-4-R---4-4-R---|4-4-R---4-4-R---|-R-|5-4-R---5-4-r---|

|--------------6-|--------------6-|--------------6-|--------------6-|
|----------------|----------------|----------------|----------------|
|----------------|----------------|----------------|----------------|
|5-4-R---5-4-r---|5-4-R---5-4-r---|5-4-R---5-4-r---|R---R---4-4-r---|

|--------------6-|--------------6-|--------------6-|--------------6-|
|----------------|----------------|----------------|----------------|
|----------------|----------------|----------------|----------------|
|5-4-R---5-4-r---|5-4-R---5-4-r---|5-4-R---5-4-r---|R---R---4-4-r---|

Chorus (x8)
Outro (x10)(fades on 5th repeat)
Rest till end
            

comments powered by Disqus
↑ Back to top | Cypress Hill Bass for Lil' Putos. Lyrics for acoustic guitar and electric guitar. Tablatures and chords are parodies/interpretations of the original songs. You may use it for private study, scholarship, research or language learning purposes only