» » »

Lick A Shot Bass tabs (ver.3)

Artists:  A B C D E F G H I J K L M N O P Q R S T U V W X Y Z # 

Lick A Shot Bass tabs (ver.3)

Cypress Hill
Rating:
0/5 (0 votes)

Hard to play? Try these video lessons and learn fast.
                (Live)
Main Bass Line
G:----7----8----------------|
D:-5---56---65--------------|
A:--------------------------|
E:--------------------------|

Bass Solo

(02:04)
G:---------------------------------------------------------------------------|
D:-------------------------------------5760-5760-5760-5760-5760-5760-5-4-5-4-|
A:-0576-576-0576-576-0576-576-0576-576---------------------------------------|
E:---------------------------------------------------------------------------|


G:----7----8----------------|
D:-5---56---65--------------|
A:--------------------------|
E:--------------------------|
            
Hard to play? Try these video lessons and learn fast. | Correct




comments powered by Disqus
↑ Back to top | Tablatures and chords are parodies/interpretations of the original songs. You may use it for private study, scholarship, research or language learning purposes only