» » »

Hand On The Glock Bass tabs (ver.1)

Artists:  A B C D E F G H I J K L M N O P Q R S T U V W X Y Z # 

Hand On The Glock Bass tabs (ver.1)

Cypress Hill
Rating:
4/5 (1 vote)

Hard to play? Try these video lessons and learn fast.
                
For questions, comments, feedback, an outline of the timing, write the above
address.

(4/4)(98 bpm)
Standard tuning

R - quarter rest
r - eighth rest

Intro (chorus/outro): (x8)
|----------------|
|----------------|
|9---------8--8r-|
|--9-R---99--9---|

Verse 1: (0:20)
|----------------|----------------|----------------|----------------|
|----------------|----------------|----------------|----------------|
|9---------8--8r-|9---------8--8r-|9---------8--8r-|9---------8--8r-|
|--9-R---99--9---|--9-R---99--9---|--9-R---99--9---|--9-R---99--9---|

|----------------|----------------|----------------|----------------|
|----------------|----------------|----------------|----------------|
|9-7-R---7-r-R---|9---------8--8r-|9---------8--8r-|9---------8--8r-|
|----------------|--9-R---99--9---|--9-R---99--9---|--9-R---99--9---|

|----------------|----------------|----------------|----------------|
|----------------|----------------|----------------|----------------|
|9---------8--8r-|9---------8--8r-|9---------8--8r-|9---------8--8r-|
|--9-R---99--9---|--9-R---99--9---|--9-R---99--9---|--9-R---99--9---|

|----------------|----------------|
|----------------|----------------|
|9---------8--8r-|9---------8--8r-|
|--9-R---99--9---|--9-R---99--9---|

Chorus (x8)

Verse 2: (1:13)
|----------------|----------------|----------------|----------------|
|----------------|----------------|----------------|----------------|
|9-r-R-----------|9-r-R-----------|9-r-R-----------|9-r-R-----------|
|--------9-r-9-r-|--------9-r-9-r-|--------9-r-9-r-|--------9-r-9-r-|

|----------------|----------------|----------------|----------------|
|----------------|----------------|----------------|----------------|
|9---------8--8r-|9---------8--8r-|9---------8--8r-|9---------8--8r-|
|--9-R---99--9---|--9-R---99--9---|--9-R---99--9---|--9-R---99--9---|

|----------------|----------------|----------------|
|----------------|----------------|----------------|
|9---------------|9---------8--8r-|9---------8--8r-|
|--9-R---R---R---|--9-R---99--9---|--9-R---99--9---|

Chorus (x8)

Verse 3: (2:00)
|----------------|----------------|----------------|----------------|
|----------------|----------------|----------------|----------------|
|9---------8--8r-|9---------8--8r-|9---------8--8r-|9---------8--8r-|
|--9-R---99--9---|--9-R---99--9---|--9-R---99--9---|--9-R---99--9---|

|----------------|----------------|----------------|----------------|
|----------------|----------------|----------------|----------------|
|9---------8--8r-|9---------------|9---------------|9---------------|
|--9-R---99--9---|--9-R---R---R---|--9-R---R---R---|--9-R---R---R---|

|----------------|----------------|----------------|----------------|
|----------------|----------------|----------------|----------------|
|9---------8--8r-|9---------8--8r-|9---------8--8r-|9---------8--8r-|
|--9-R---99--9---|--9-R---99--9---|--9-R---99--9---|--9-R---99--9---|

|----------------|----------------|----------------|----------------|
|----------------|----------------|----------------|----------------|
|9---------8--8r-|9---------8--8r-|9---------8--8r-|9---------8--8r-|
|--9-R---99--9---|--9-R---99--9---|--9-R---99--9---|--9-R---99--9---|

Chorus (x8)
Outro (x16)(fades on 6th repeat)
Rest till end
            
Hard to play? Try these video lessons and learn fast. | Correct




comments powered by Disqus
↑ Back to top | Tablatures and chords are parodies/interpretations of the original songs. You may use it for private study, scholarship, research or language learning purposes only