» » »

Dead Men Tell No Tales Tabs (ver.1)

Artists:  A B C D E F G H I J K L M N O P Q R S T U V W X Y Z # 

Dead Men Tell No Tales Tabs (ver.1)

Cypress Hill
Rating:
0/5 (0 votes)

Hard to play? Try these video lessons and learn fast.
                This song is simple but it sounds awesome


E|---------------4----5------------
B|----------4---------------------
G|-----5--------------------------
D|-------------------------------
A|-------------------------------
E|-------------------------------


E|---------------4----5------------
B|----------4---------------------
G|-----5--------------------------
D|-------------------------------
A|-------------------------------
E|-------------------------------



E|---------------4----5------------
B|----------4---------------------
G|-----5--------------------------
D|-------------------------------
A|-------------------------------
E|-------------------------------



E|---------------4----5------------
B|----------4---------------------
G|-----5--------------------------
D|-------------------------------
A|-------------------------------
E|-------------------------------



E|---------------4----5------------
B|----------4---------------------
G|-----5--------------------------
D|-------------------------------
A|-------------------------------
E|-------------------------------



E|---------------4----5------------
B|----------4---------------------
G|-----5--------------------------
D|-------------------------------
A|-------------------------------
E|-------------------------------



E|---------------4----5------------
B|----------4---------------------
G|-----5--------------------------
D|-------------------------------
A|-------------------------------
E|-------------------------------

Yup and you guessed it, just keep repeating it!
            
Hard to play? Try these video lessons and learn fast. | Correct




comments powered by Disqus
↑ Back to top | Tablatures and chords are parodies/interpretations of the original songs. You may use it for private study, scholarship, research or language learning purposes only