» » »

Carry Me Away Tabs (ver.1)

Artists:  A B C D E F G H I J K L M N O P Q R S T U V W X Y Z # 

Carry Me Away Tabs (ver.1)

Cypress Hill
Rating:
5/5 (1 vote)

Hard to play? Try these video lessons and learn fast.
                Cypress Hill - Carry me away
Rise up - 2010



Intro (0 to 24 seconds)
e -----7777-------------------------------------------------|
B --------------8-7--5-7-3-5----------8-7--5-7-3-5----------|
G ----------0----------------/4\2/4----------------/4\2/4---|
D -----------2----------------------2---------------------2-|
A ----------------------------------------------------------|
E -0--------------------------------------------------------|

e -----------------------------------------------|
B -/8-7--5-7-3-5----------5-3-/5-7/8-5-7-5-3-0-0-|
G ---------------/4\2/4--------------------------|
D ----------------------2------------------------|
A -----------------------------------------------|
E -----------------------------------------------|


Verse (starts at second 24) 3x
e ----------------------------|
B ----8-7--5-7-3-5------------|
G -----------------/4\2/4-----|
D ------------------------2---|
A ----------------------------|
E -(0)------------------------|

second 39    one time
e ---------------------------|
B -5-3-5-/8-5-7-5-3-0-0p1-0--|
G ---------------------------|
D ---------------------------|
A ---------------------------|
E ---------------------------|

 (second 44)   3x
e ----------------------------|
B ----8-7--5-7-3-5------------|
G -----------------/4\2/4-----|
D ------------------------2---|
A ----------------------------|
E -(0)------------------------|

 (second 59)    one time
e ---------------------------|
B -5-3-5-/8-5-7-5-3-0-0p1-0--|
G ---------------------------|
D ---------------------------|
A ---------------------------|
E ---------------------------|

Chorus (1:03) - the same like in the verse, but not as loud

1:23 Verse
the same procedure...

2:02 - starts

2:23 - Verse starts

3x
e --------------------------|
B ----8-7--7-7-5------------|
G ---------------/4\2/4-----|
D ----------------------2---|
A --------------------------|
E -(0)----------------------|

1x (2:38)
e ---------------------|
B -8-7-5/7-5-3-0-0p1-0-|
G ---------------------|
D ---------------------|
A ---------------------|
E ---------------------|

---> two times

3:03 Chorus - the same chorus all the time

after the chorus the ending.. the main riff like in the verse.


So, these are my first tabs I ever wrote.. nice song, I´d say. For any corrections and 
please send me an e-mail.
            
Hard to play? Try these video lessons and learn fast. | Correct




comments powered by Disqus
↑ Back to top | Tablatures and chords are parodies/interpretations of the original songs. You may use it for private study, scholarship, research or language learning purposes only