>
 >
Uroboric Forms

Uroboric Forms Guitar Tabs

Cynic - Uroboric Forms chords, tabs, tablatures, lyrics

Guitar lessons | Add/correct | Request | Top 50 tabs Artists:  A B C D E F G H I J K L M N O P Q R S T U V W X Y Z 0-9

Uroboric Forms Guitar Tabs – Cynic

CD, Sheet music, Poster

Do you like Uroboric Forms? Share with your friends now
Tabs
Look for a more detailed and constant updated version with powertab at 

                                 UROBORIC FORMS
                              As recorded by Cynic
                           (From the 1993 Album FOCUS)

Words by Paul Masvidal Music by Cynic

Gtr I (E A D G B E) - 'Paul (distortion)'
Gtr II (E A D G B E) - 'Jason (distortion)'
Gtr III (E A D G B E) - 'Paul (clean tone)'
Gtr IV (E A D G B E) - 'Jason (clean tone)'
Gtr V (E A D G B E) - 'Paul (lead)'
Gtr VI (E A D G B E) - 'Jason (lead)'

  Q=180
 12/8
  Gtr I
  PM---------------------------------------------
  E  S S S S  E  S S S S E  S S S S  E  S S S S
|-----------------------------------------------|
|-----------------------------------------------|
|-----------------------------------------------|
|-----------------------------------------------|
|-4--------------4-4-4-4-4--------------5-5-5-5-|
|----2-2-2-2--2-------------2-2-2-2--2----------|
|
| Gtr II
| PM-------|     PM---------------|     PM-------
| E  S S S S  E  S S S S E  S S S S  E  S S S S
|-----------------------------------------------|
|-----------------------------------------------|
|------------11---------------------11----------|
|------------11---------------------11----------|
|----9-9-9-9--9-------------9-9-9-9--9----------|
|-7--------------7-7-7-7-7--------------7-7-7-7-|


 ---------------------------------|  ~~~
  E  S S S S  E  S S S S E  S S S S  Q       +E
|---------------------------------------------------|
|---------------------------------------------------|
|---------------------------------------------------|
|---------------------------------------------------|
|-4--------------4-4-4-4-4--------------------------|
|----1-1-1-1--1-------------1-1-1-1-[1]------(1)/---|
|
|----------|     PM---------------|      PM-------|
| E  S S S S  E  S S S S E  S S S S  E   S S  S   S
|---------------------------------------------------|
|---------------------------------------------------|
|------------10---------------------10--------------|
|------------10---------------------10--------------|
|----8-8-8-8--8-------------8-8-8-8--8--------------|
|-6--------------6-6-6-6-6---------------6-6--6---6-|


  Gtrs I, II
   PM----------|       PM---------|      PM------|
   E   S  S  S  S  E   S  S  S  S  S  S  S  S  S  S  E   +Q
|----------------------------------------------------------------|
|----------------------------------------------------------------|
|-----------------15---------------------------------------------|
|-----------------15--------------------------------15--(15)\----|
|-----13-13-13-13-13--------------------------------12--(12)\----|
|-11------------------11-11-11-11-10-10-10-10-10-10--------------|


       PM       PM--|
  Q    E  E  E  E    E   H        +E
|-------------------------------------|
|-------------------------------------|
|-------------------------------------|
|---------7s=6------12--11-------(11)-|
|-4-------4---------10---9--------(9)-|
|-2----2--------2/-------9--------(9)-|


      PM      PM|   PM
   Q  E  E  E E E E E Q  +E
|----------------------------|
|----------------------------|
|-11----14s13-----2---1--(1)-|
|-11----11------------3--(3)-|
|--9--9-------0-5---5-4--(4)-|
|----------------------------|


                             9/8
     PM    PM-|                   PM      PM|
  Q  E E E E   E  H     +E     Q  E  E  E E E E E
|---------------------------|----------------------||
|---------------------------|----------------------||
|---------------------------|-11----14s13----------||
|------7s6----12-11----(11)-|-11----11--------7-6--||
|-4----4------10--9-----(9)-|--9--9-------0-5------||
|-2--2-----2/-----9-----(9)-|----------------------||


 12/8
  Gtr I
  PM---------------------------------------------
  E  S S S S  E  S S S S E  S S S S  E  S S S S
|-----------------------------------------------|
|-----------------------------------------------|
|-----------------------------------------------|
|-----------------------------------------------|
|-4--------------4-4-4-4-4--------------5-5-5-5-|
|----2-2-2-2--2-------------2-2-2-2--2----------|
|
| Gtr II
| PM-------|     PM---------------|     PM-------
| E  S S S S  E  S S S S E  S S S S  E  S S S S
|-----------------------------------------------|
|-----------------------------------------------|
|------------11---------------------11----------|
|------------11---------------------11----------|
|----9-9-9-9--9-------------9-9-9-9--9----------|
|-7--------------7-7-7-7-7--------------7-7-7-7-|


 ---------------------------------|  ~~~
  E  S S S S  E  S S S S E  S S S S  Q       +E
|---------------------------------------------------|
|---------------------------------------------------|
|---------------------------------------------------|
|---------------------------------------------------|
|-4--------------4-4-4-4-4--------------------------|
|----1-1-1-1--1-------------1-1-1-1-[1]------(1)/---|
|
|----------|     PM---------------|      PM-------|
| E  S S S S  E  S S S S E  S S S S  E   S S  S   S
|---------------------------------------------------|
|---------------------------------------------------|
|------------10---------------------10--------------|
|------------10---------------------10--------------|
|----8-8-8-8--8-------------8-8-8-8--8--------------|
|-6--------------6-6-6-6-6---------------6-6--6---6-|


   PM----------|       PM---------|      PM------|
   E   S  S  S  S  E   S  S  S  S  S  S  S  S  S  S  E   +Q
|----------------------------------------------------------------|
|----------------------------------------------------------------|
|-----------------15---------------------------------------------|
|-----------------15--------------------------------15--(15)\----|
|-----13-13-13-13-13--------------------------------12--(12)\----|
|-11------------------11-11-11-11-10-10-10-10-10-10--------------|
|
|  PM----------|       PM---------|      PM------|
|  E   S  S  S  S  E   S  S  S  S  S  S  S  S  S  S  E   +Q
|----------------------------------------------------------------|
|----------------------------------------------------------------|
|-----------------15---------------------------------------------|
|-----------------15--------------------------------15--(15)\----|
|-----13-13-13-13-13--------------------------------12--(12)\----|
|-11------------------11-11-11-11-10-10-10-10-10-10--------------|


  PM------------------------------------------|
  E  S S S S  E  S S S S E  S S S S  E  S S S S
|-----------------------------------------------|
|-----------------------------------------------|
|-----------------------------------------------|
|-----------------------------------------------|
|-4--------------4-4-4-4-4--------------5-5-5-5-|
|----2-2-2-2--2-------------2-2-2-2--2----------|
|
| PM-------|     PM---------------|     PM----|
| E  S S S S  E  S S S S E  S S S S  E  S S S S
|-----------------------------------------------|
|-----------------------------------------------|
|------------11---------------------11----------|
|------------11---------------------11----------|
|----9-9-9-9--9-------------9-9-9-9--9----------|
|-7--------------7-7-7-7-7--------------7-7-7-7-|


  PM------------------------------|  ~~~
  E  S S S S  E  S S S S E  S S S S  Q      +E
|--------------------------------------------------|
|--------------------------------------------------|
|--------------------------------------------------|
|--------------------------------------------------|
|-4--------------4-4-4-4-4-------------------------|
|----1-1-1-1--1-------------1-1-1-1-[1]-----(1)/---|
|
| PM-------|     PM---------------|     PM----------
| E  S S S S  E  S S S S E  S S S S  E  S S  S   S
|--------------------------------------------------|
|--------------------------------------------------|
|------------10---------------------10-------------|
|------------10---------------------10-------------|
|----8-8-8-8--8-------------8-8-8-8--8-------------|
|-6--------------6-6-6-6-6--------------6-6--6---6-|


   PM----------|       PM---------|      PM------|
   E   S  S  S  S  E   S  S  S  S  S  S  S  S  S  S  E   +Q
|---------------------------------------------------------------|
|---------------------------------------------------------------|
|-----------------15--------------------------------------------|
|-----------------15--------------------------------15--(15)\---|
|-----13-13-13-13-13--------------------------------12--(12)\---|
|-11------------------11-11-11-11-10-10-10-10-10-10-------------|
|
|--------------|       PM---------|      PM------|
|  E   S  S  S  S  E   S  S  S  S  S  S  S  S  S  S  E   +Q
|---------------------------------------------------------------|
|---------------------------------------------------------------|
|-----------------15--------------------------------------------|
|-----------------15--------------------------------15--(15)\---|
|-----13-13-13-13-13--------------------------------12--(12)\---|
|-11------------------11-11-11-11-10-10-10-10-10-10-------------|


  Gtrs I, II
     PM    PM-|                    PM      PM|   PM
  Q  E E E E   E  H      +E     Q  E  E  E E E E E Q  +E
|----------------------------|----------------------------|
|----------------------------|----------------------------|
|----------------------------|-11----14s13-----2---1--(1)-|
|------7s6----12-11-----(11)-|-11----11------------3--(3)-|
|-4----4------10--9------(9)-|--9--9-------0-5---5-4--(4)-|
|-2--2-----2/-----9------(9)-|----------------------------|


                             9/8
     PM    PM-|                   PM      PM|
  Q  E E E E   E  H     +E     Q  E  E  E E E E E
|---------------------------|---------------------||
|---------------------------|---------------------||
|---------------------------|-11----14s13---------||
|------7s6----12-11----(11)-|-11----11--------7-6-||
|-4----4------10--9-----(9)-|--9--9-------0-5-----||
|-2--2-----2/-----9-----(9)-|---------------------||


  Q=135
 4/4
  Gtr I
                         PM--|               PM--|                 PM----|
                                             |-3-|
  H   E E Q    H      Q  S S S S   Q  H  +E  S S S    E  E  Q   Q  S S S S
|-----4------|-------------------|-----------------|-----------------------||
|-7-----7----|-6----/10----------|----7--(7)-------|-10s13-13\--6----------||
|-6-------6--|-5-----/9----------|----6--(6)-------|--9s12-12\--5----------||
|-4----------|-3-----/7--6-6-7-4-|----4--(4)-4-4-4-|--7s10-10\--3--4-6-7-4-||
|------------|-------------------|-----------------|-----------------------||
|------------|-------------------|-----------------|-----------------------||
|
| Gtr II
|                        PM--|               PM--|                 PM----|
|                                            |-3-|
| W            H      Q  S S S S   Q  H  +E  S S S    E  E  Q   Q  S S S S
|------------|-------------------|-----------------|-----------------------||
|------------|-------------------|-----------------|-----------------------||
|------------|-------------------|-----------------|-----------------------||
|-4----------|-3-----/7----------|----4--(4)-------|--7s10-10\--3----------||
|-4----------|-3-----/7----------|----4--(4)-------|--7s10-10\--3----------||
|-2----------|-1-----/5--4-4-5-2-|----2--(2)-2-2-2-|--5s=8--8\--1--2-4-5-2-||


  Gtr I
  PM----|   PM--|   PM--|   PM--|     PM--|   PM--|   PM   PM------|
  S S S S S S S S S S S S S S S S   S S S S S S S S S S  S S S S S S
|---------------------------------|----------------------------------|
|-----------------5-------7-------|-4-------6-----------12-----------|
|---------6-----------------------|-----------------9----------------|
|---4-4-4---4-4-4---4-4-4---4-4-3-|---3-3-3---3-7-7---7----6-7-6-7---|
|-6-------------------------------|--------------------------------9-|
|---------------------------------|----------------------------------|
|
| Gtr II
| PM-------------------------------------------------------------|
| S S S S S S S S S S S S S S S S   S S S S S S S S S S  S S S S S S
|---------------------------------|----------------------------------|
|---------------------------------|--------------------------------7-|
|---------------------------------|-----------------6--------------6-|
|---------7-----------7-------7---|---------6---7-7---7--9-6-7---7-4-|
|-6-6-9-9---6-6-6-9-9---6-6-6---6-|-6-6-8-8---8----------------8-----|
|---------------------------------|----------------------------------|


   PM-------|   PM--|   PM--|   PM--|      PM--|    PM---|   PM  PM------|
   S   S  S S S S S S S S S S S S S S    S S S S  S S S  S S S S S S S S S
|-------------------------------------|------------------------------------|
|---------------------5-------7-------|-12-------10------------------------|
|-------------6-----------------------|--------------------6---7-----------|
|------4--4-4---4-4-4---4-4-4---4-7-7-|----7-7-7----7-4--4---4---6-7-6-7---|
|--6----------------------------------|----------------------------------9-|
|-------------------------------------|------------------------------------|
|
|         PM|                 PM--------------------|      PM------------|
| +E      S S H               S S S S    S S S S  S S E    S S S S S S S S
|-------------------------------------|------------------------------------|
|-(7)\--------7-----------------------|------------------------------------|
|-(6)\--------6-----------------------|------------------------------------|
|-(4)\---/4-4-4-----------------------|---------------4\-------------------|
|-----------------------------9-9-6-6-|--9-6-6-6--7-4----------------------|
|-------------------------------------|--------------------2-3-3-3-5-4-5-2-|


  PM----|   PM--|   PM--|   PM--|     PM--|   PM--|   PM   PM------|
  S S S S S S S S S S S S S S S S   S S S S S S S S S S  S S S S S S
|---------------------------------|----------------------------------|
|-----------------5-------7-------|-4-------6-----------12-----------|
|---------6-----------------------|-----------------9----------------|
|---4-4-4---4-4-4---4-4-4---4-4-3-|---3-3-3---3-7-7---7----6-7-6-7---|
|-6-------------------------------|--------------------------------9-|
|---------------------------------|----------------------------------|
|
| PM-------------------------------------------------------------|
| S S S S S S S S S S S S S S S S   S S S S S S S S S S  S S S S S S
|---------------------------------|----------------------------------|
|---------------------------------|--------------------------------7-|
|---------------------------------|-----------------6--------------6-|
|---------7-----------7-------7---|---------6---7-7---7--9-6-7---7-4-|
|-6-6-9-9---6-6-6-9-9---6-6-6---6-|-6-6-8-8---8----------------8-----|
|---------------------------------|----------------------------------|


   PM-------|   PM--|   PM--|   PM--|      PM--|    PM---|   PM  PM----|
   S   S  S S S S S S S S S S S S S S    S S S S  S S S  S S S S S S S S S
|-------------------------------------|------------------------------------||
|---------------------5-------7-------|-12-------10----------------------7-||
|-------------6-----------------------|--------------------6---7---------6-||
|------4--4-4---4-4-4---4-4-4---4-7-7-|----7-7-7----7-4--4---4---6-7-6-7-4-||
|--6----------------------------------|------------------------------------||
|-------------------------------------|------------------------------------||
|
|         PM|                 PM--------------------|      PM----------|
| +E      S S H               S S S S    S S S S  S S E    S S S S S S S S
|-------------------------------------|------------------------------------||
|-(7)\--------7-----------------------|------------------------------------||
|-(6)\--------6-----------------------|------------------------------------||
|-(4)\---/4-4-4-----------------------|---------------4\-----------------4-||
|-----------------------------9-9-6-6-|--9-6-6-6--7-4--------------------4-||
|-------------------------------------|--------------------2-3-3-3-5-4-5-2-||


  Gtrs I, II
  PM------------------------|      PM-----------|
  S S S S S S S S S S S S S S E    E  S S S S S S E  Q.
|--------------------------------|-------------------------||
|--------------------------------|-------------------------||
|--------------------------------|-------------------------||
|---5-5-5-8-----------6----------|----------------5--------||
|-----------4-4-4-4-4---------8--|--------6-------5--------||
|-----------------------6-6-6----|-4--4-4---4-4-4-3--------||


  Gtr VI
   S  S  S  S  S  S  S  S  S  S  S  S  S  S  S  S
|----------23----------22----------21----------20-|
|-20----20----20----20----20----20----20----19----|
|----17----------17----------17----------17-------|
|-------------------------------------------------|
|-------------------------------------------------|
|-------------------------------------------------|
|
| Gtr I
|  PM----------------------------------------------
|  S  S  S  S  S  S  S  S  S  S  S  S  S  S  S  S
|-------------------------------------------------|
|-------------------------------------------------|
|-------------------------------------------------|
|--------------5--5--8--8--------6--6-------------|
|--------------------------4--4--------------8--8-|
|--8--8--6--6--------------------------6--6-------|


                                       ~~
   S  S  S  S  S  S  S  S  S  S  S  S  E    +E
|----------------------20--------------------------|
|-19----19s20-19----19----19----19s20-19---(19)\---|
|----17----------17----------17--------------------|
|--------------------------------------------------|
|--------------------------------------------------|
|--------------------------------------------------|
|
|------------------------------------------------|
|  S  S  S  S  S  S  S  S  S  S  S  S  S S   S   S
|--------------------------------------------------|
|--------------------------------------------------|
|--------------------------------------------------|
|--------------------------------------------------|
|--------------6--8-----6--------------5-5---6---3-|
|--4--4--4--4--------4-----3--3--3--3--------------|


   S  S  S  S  S  S  S  S  S  S  S  S  S  S  S  S
|-15----19-------17-15----19-------17-15s14----18-|
|----17----15-19-------17----15-19----------16----|
|-------------------------------------------------|
|-------------------------------------------------|
|-------------------------------------------------|
|-------------------------------------------------|
|
|  PM----------------------------------------------
|  S  S  S  S  S  S  S  S  S  S  S  S  S  S  S  S
|-------------------------------------------------|
|-------------------------------------------------|
|-------------------------------------------------|
|--------------5--5--8--8--------6--6-------------|
|--------------------------4--4--------------8--8-|
|--8--8--6--6--------------------------6--6-------|


   S  S  S  S  S  S  S  S  S  S  S  S   Q
|----13-16-14-13----17----12-15-13-17-(17)\----|
|-14-------------15----13--------------15\-----|
|----------------------------------------------|
|----------------------------------------------|
|----------------------------------------------|
|----------------------------------------------|
|
|-------------------------------------|
|  S  S  S  S  S  S  S  S  S  S  S  S   Q
|----------------------------------------------|
|----------------------------------------------|
|---------------------------------------7------|
|---------------------------------------7------|
|--------------8--8----------------------------|
|--4--4--4--4--------4--4--3--3--3--3----------|


    ~~~
    Q            +Q             S   S   S  S    S.     S.    S
|--------------------------------------------------------------|
|-/20-----------(20)-----------16h=18--16s15---16-----------18-|
|-----------------------------------------------------17-------|
|--------------------------------------------------------------|
|--------------------------------------------------------------|
|--------------------------------------------------------------|
|
|   PM-----------------------------|            PM--|
|   S  S  S  S    S   S  S  S   S   S   E       S   S  E
|--------------------------------------------------------------|
|--------------------------------------------------------------|
|--------------------------------------------------------------|
|--------------------------------------10-------------10-------|
|---6-------------5--------------------10-------------10-------|
|------6--6--6--------6--6--6---8---8-----------8---8----------|


                                                    |-------6-------|
   +E       E.         +S    H                      T  T  T   T  T  T
|--------------------------------------------------------15-----15h18--|
|-(18)------------------------------------------------18----h18--------|
|----------15---------(15)h=16---------------------19------------------|
|----------------------------------------------------------------------|
|----------------------------------------------------------------------|
|----------------------------------------------------------------------|
|
|   PM----------------------------------------------------------|
|   S   S   S   S  S    S    S  S   S  S  S  S  S   S     S      S
|----------------------------------------------------------------------|
|----------------------------------------------------------------------|
|----------------------------------------------------------------------|
|----------------------------------------------------------------------|
|-----------7------6---------------10-----------9----------------------|
|---7---7-------7-------7----7--7------7--7--7------7-----7------7-----|


                                                ~~
   E.         T  T  S   S   T  T  S   S   T  T  Q           S   S
|-20---------18p15-----18p=15------------------15------------------|
|------------------19---------19-18--19--18h19-------------18p=15--|
|------------------------------------------------------------------|
|------------------------------------------------------------------|
|------------------------------------------------------------------|
|------------------------------------------------------------------|
|
|  PM------------------------------------|           PM-|
|  S   S  S   S     S   S   S     S   S   S     E    S  S   E
|------------------------------------------------------------------|
|------------------------------------------------------------------|
|------------------------------------------------------------------|
|----------------------------------------------10----------10------|
|--6----------------5--------------------------10----------10------|
|------6--6---6---------6---6-----6---8---8----------8--8----------|


    H.                                       +Q
|------------------------------------------------------||
|--18b20------------------------------------(18)-------||
|------------------------------------------------------||
|------------------------------------------------------||
|------------------------------------------------------||
|------------------------------------------------------||
|
|   PM--------------------------------------|
|   S     S  S  S  S  S  S  S   S  S  S  S    E   E
|------------------------------------------------------||
|------------------------------------------------------||
|------------------------------------------------------||
|---------------------------------------------9--------||
|------------7-----6-----------10-------------9--------||
|---7-----7-----7-----7--7--7------7--7--7----7--------||


  PM----------------|     PM|       PM-----------------------------|
  S S S S S S S S S S  E  S S  E    S S S S S S S S  S S S S S S S S
|---------------------------------|----------------------------------|
|---------------------------------|----------------------------------|
|---------------------------------|----------------------------------|
|---------------------10------10--|----------------------------------|
|-6-------5-----------10------10--|-----7---6-------10-------9-------|
|---6-6-6---6-6-6-8-8-----8-8-----|-7-7---7---7-7-7----7-7-7---7-7-7-|


                                 6/4
  PM----------------|    PM|      PM-----------------------|
  S S S S S S S S S S  E S S  E   S S S S S S S S  S S S S E E  H
|-------------------------------|----------------------------------||
|-------------------------------|----------------------------------||
|-------------------------------|----------------------------------||
|---------------------10-----10-|--------------------------9-------||
|-6-------5-----------10-----10-|-----7---6-------10-------9-------||
|---6-6-6---6-6-6-8-8----8-8----|-7-7---7---7-7-7----7-7-7-7-------||


  Q=150
  Gtr III
   Q    Q    Q     H.               +W.
|-------0---------^0-------------|--(0)------------------------|
|-^0----0---------^0-------------|--(0)------------------------|
|-^4----0----4----^3-------------|--(3)------------------------|
|-^2---------2----^1-------------|--(1)------------------------|
|-^5---------5----^4-------------|--(4)------------------------|
|-^3---------3----^2-------------|--(2)------------------------|
|
| Gtr IV
|  Q    Q    Q     H.               +W.
|-^0----0---------^0-------------|--(0)------------------------|
|-^0---------0----^0-------------|--(0)------------------------|
|-^4--------------^3-------------|--(3)------------------------|
|-^5--------------^4-------------|--(4)------------------------|
|-^5--------------^4-------------|--(4)------------------------|
|-^3--------------^2-------------|--(2)------------------------|


    Q    Q    Q     H.                 +W.
|--------0---------^0---------------|--(0)----|
|--^0----0---------^0---------------|--(0)----|
|--^4----0----4----^3---------------|--(3)----|
|--^2---------2----^1---------------|--(1)----|
|--^5---------5----^4---------------|--(4)----|
|--^3---------3----^2---------------|--(2)----|
|
|   Q    Q    Q     Q     Q    Q        W.
|--^0----0---------^0---------------|--(0)----|
|--^0---------0----^0---------------|--(0)----|
|--^4--------------^3-----3---------|--(3)----|
|--^5--------------^4---------------|--(4)----|
|--^5--------------^4----------4----|--(4)----|
|--^3--------------^2---------------|--(2)----|


    E E E E E E E E E E E E   E E E E E E E E E E E E
||--------------------------|------------------------|
||o-------------------------|------------------------|
||----------4---3-------3---|------------------------|
||--------2---2---1---1---1-|---------7---6-------6--|
||o---5-------------4-------|---8---8---8---7---7---7|
||--3---3-------------------|-9---9-----------9------|
|
|   E E E E E E E E E E E E   E E E E E E E E E E E E
||----0---------------------|------------------------|
||o-----3-------------------|------------------------|
||--------0-4---3-------3---|------------------------|
||--0---------5---4---4---4-|---------3---2-------2--|
||o-----------------4-------|---4---4---4---4---4---4|
||--------------------------|-5---5-----------4------|


  E E E E E E E E E E E E   E E E E E E E E E E E E
|-------------------------|--------------------------||
|-------------------------|-------------------------o||
|-------------------------|--------------------------||
|---------4---------------|--------------------------||
|-7---7-----7-6---6---6---|-7---7---7---6---6---6---o||
|---4---4-------3---3---3-|---3---3---3---3---3---3--||
|
| E E E E E E E E E E E E   E E E E E E E E E E E E
|-------------------------|--------------------------||
|-5-------7p5-4-------4---|-5-------5---4-------4---o||
|-------------------------|--------------------------||
|---6---6-------5---5---5-|---6---6---6---5---5---5--||
|-----7-----------6-------|-----7-----------6-------o||
|-------------------------|--------------------------||


  Gtr I
                         PM----|   PM
  Q   Q  Q  Q   Q  Q     E E E E E E Q   Q  Q
|----------------------|-----------------------|
|----------------------|-----------------------|
|--------4--3----------|-----------------------|
|-----5---------4------|---------7---6---------|
|-5----------------4/--|---8---8---8-----7-----|
|----------------------|-9---9--------------9--|
|
| Gtr II
|                        PM  PM|   PM
| H.        H.           E E E E E E H.
|----------------------|-----------------------|
|----------------------|-----------------------|
|-4---------3----------|-----------------------|
|-5---------4----------|---7-----7---6---------|
|-5---------4----------|---8-----8---7---------|
|-3---------2----------|-9---9-9---9-----------|


     PM--------|    PM|    PM--------|    PM|
  E  S S S S S S E  S S E  S S S S S S E  S S
|---------------------------------------------|
|---------------------------------------------|
|---------------------------------------------|
|----------------4----------------------------|
|-7---------------------6--------------6------|
|----4-4-4-4-4-4----4-4----4-4-4-4-4-4----4-4-|
|
| H              Q      H              Q
|---------------------------------------------|
|---------------------------------------------|
|---------------------------------------------|
|-9--------------9------8--------------8------|
|-7--------------7------6--------------6------|
|---------------------------------------------|


      PM--------|    PM    PM----|
   E  S S S S S S E  E  E  E  E  E  E  E
|-----------------------------------------||
|-----------------------------------------||
|-----------------------------------------||
|-----------------4--------8--8--8--8s=6--||
|--7--------------------6--6--6--6--6s=4--||
|-----4-4-4-4-4-4----4--------------------||
|
|                       PM-------|
|  H              Q     E  E  E  E  E  E
|-----------------------------------------||
|-----------------------------------------||
|-----------------------------------------||
|--8--------------8-----8--8--8--8--8s=6--||
|--7--------------7-----6--6--6--6--6s=4--||
|--6--------------6-----------------------||


  Q=240
  Gtr V
   PM--------|       PM           PM-|
   E  E   E  E   E   E    E   E   E   E   E   E
|----------------7-----------------------15------|
|-----8------8-------8/------12------12------12--|
|-11-----11--------------12------12--------------|
|------------------------------------------------|
|------------------------------------------------|
|------------------------------------------------|
|
| Gtr II
|  PM---------------------------------------------
|  E  E   E  E   E   E    E   E   E   E   E   E
|------------------------------------------------|
|------------------------------------------------|
|------------------------------------------------|
|---------------11--11---12--12----------12------|
|---------9--9-------------------10--10------10--|
|--7--7------------------------------------------|


                              ~~
   a  Q       Q       Q       Q      Q      Q
|------------------------------------------------|
|-12s14--------------15------14------------17\---|
|-12s14-----------------------------15-----------|
|------------17----------------------------------|
|------------------------------------------------|
|------------------------------------------------|
|
|---------------------------------------|
|     E   E   E   E   E   E   E  E   E  E   E  E
|------------------------------------------------|
|------------------------------------------------|
|-------------------------------------------6h=7-|
|--------------------14--14---6--6------6--------|
|------------12--12------------------7-----------|
|----10--10--------------------------------------|


   PM--------|       PM           PM-|
   E  E   E  E   E   E    E   E   E   E   E   E
|----------------7-----------------------15------|
|-----8------8-------8/------12------12------12--|
|-11-----11--------------12------12--------------|
|------------------------------------------------|
|------------------------------------------------|
|------------------------------------------------|
|
|  PM--------|            PM----------------------
|  E  E   E  E   E   E    E   E   E   E   E   E
|------------------------------------------------|
|------------------------------------------------|
|------------------------------------------------|
|---------------11s=12-------------------12------|
|---------9--9------------9--10--10--10------12--|
|--7--7------------------------------------------|


   a  Q       Q       a  Q         H                     +Q
|---------------------------------------------------------------|
|-12s14--------------15s20--------19b21r================(19)\---|
|-12s14---------------------------------------------------------|
|------------17-------------------------------------------------|
|---------------------------------------------------------------|
|---------------------------------------------------------------|
|
|-----------------------------------------------|
|     E   E   E   E   E     E   E        E   E   E   Q
|---------------------------------------------------------------|
|---------------------------------------------------------------|
|---------------------------------------------------------------|
|--------------------14----14---------------16--16--16\---------|
|------------12--12------------14-------14----------------------|
|----10--10-----------------------------------------14\---------|


   PM--------|       PM           PM-|
   E  E   E  E   E   E    E   E   E   E   E   E
|----------------7-----------------------15------|
|-----8------8-------8/------12------12------12--|
|-11-----11--------------12------12--------------|
|------------------------------------------------|
|------------------------------------------------|
|------------------------------------------------|
|
|  PM--------|            PM----------------------
|  E  E   E  E   E   E    E   E   E   E   E   E
|------------------------------------------------|
|------------------------------------------------|
|------------------------------------------------|
|---------------11s=12-------12-------9--12------|
|-----7---9--9------------9------10----------12--|
|--7---------------------------------------------|


                             ~~
   a  Q       Q       Q      Q      Q      Q
|------------------------------------------------|
|-12s14--------------15-----14------------17\----|
|-12s14----------------------------15------------|
|------------17----------------------------------|
|------------------------------------------------|
|------------------------------------------------|
|
|----------------|           PM----------------|
|     E   E   E   E   Q      E  E   E  E   E   E
|------------------------------------------------|
|------------------------------------------------|
|------------------------------------------6-----|
|--------------------14\-----6--6------6-------6-|
|------------12--12-----------------7------------|
|----10--10--------------------------------------|


  Q=220                        Q=250
                               PM---|
  H.      H.         H.        E  E  E E  E  E
|-----------------|----------------------------||
|-----------------|----------------------------||
|---------7-------|-12-----------------9-11-12-||
|-9---------------|------------9-11-12---------||
|---------5-------|-10-------------------------||
|-7---------------|----------------------------||
|
|                              PM---|
| H.      H.         H     Q   E  E  E E  E  E
|-----------------|----------------------------||
|-----------------|----------------------------||
|---------7-------|-12-------------------------||
|-9-------7-------|-12-------------------------||
|-9-------5-------|-10-----------------2--4--5-||
|-7---------------|--------x\--2--4--5---------||


  Q=180
 12/8
  Gtr I
  PM---------------------------------------------
  E  S S S S  E  S S S S E  S S S S  E  S S S S
|-----------------------------------------------|
|-----------------------------------------------|
|-----------------------------------------------|
|-----------------------------------------------|
|-4--------------4-4-4-4-4--------------5-5-5-5-|
|----2-2-2-2--2-------------2-2-2-2--2----------|
|
| Gtr II
| PM-------|     PM---------------|     PM-------
| E  S S S S  E  S S S S E  S S S S  E  S S S S
|-----------------------------------------------|
|-----------------------------------------------|
|------------11---------------------11----------|
|------------11---------------------11----------|
|----9-9-9-9--9-------------9-9-9-9--9----------|
|-7--------------7-7-7-7-7--------------7-7-7-7-|


 ---------------------------------|  ~~~
  E  S S S S  E  S S S S E  S S S S  Q      +E
|---------------------------------------------------|
|---------------------------------------------------|
|---------------------------------------------------|
|---------------------------------------------------|
|-4--------------4-4-4-4-4--------------------------|
|----1-1-1-1--1-------------1-1-1-1-[1]-----(1)/----|
|
|----------|     PM---------------|     PM-------|
| E  S S S S  E  S S S S E  S S S S  E  S S  S   S
|---------------------------------------------------|
|---------------------------------------------------|
|------------10---------------------10--------------|
|------------10---------------------10--------------|
|----8-8-8-8--8-------------8-8-8-8--8--------------|
|-6--------------6-6-6-6-6--------------6-6--6---6--|


   PM----------|       PM---------|      PM------|
   E   S  S  S  S  E   S  S  S  S  S  S  S  S  S  S  E   +Q
|----------------------------------------------------------------|
|----------------------------------------------------------------|
|-----------------15---------------------------------------------|
|-----------------15--------------------------------15--(15)\----|
|-----13-13-13-13-13--------------------------------12--(12)\----|
|-11------------------11-11-11-11-10-10-10-10-10-10--------------|
|
|  PM----------|       PM---------|      PM------|
|  E   S  S  S  S  E   S  S  S  S  S  S  S  S  S  S  E   +Q
|----------------------------------------------------------------|
|----------------------------------------------------------------|
|-----------------15---------------------------------------------|
|-----------------15--------------------------------15--(15)\----|
|-----13-13-13-13-13--------------------------------12--(12)\----|
|-11------------------11-11-11-11-10-10-10-10-10-10--------------|


  PM------------------------------------------|
  E  S S S S  E  S S S S E  S S S S  E  S S S S
|-----------------------------------------------|
|-----------------------------------------------|
|-----------------------------------------------|
|-----------------------------------------------|
|-4--------------4-4-4-4-4--------------5-5-5-5-|
|----2-2-2-2--2-------------2-2-2-2--2----------|
|
| PM-------|     PM---------------|     PM----|
| E  S S S S  E  S S S S E  S S S S  E  S S S S
|-----------------------------------------------|
|-----------------------------------------------|
|------------11---------------------11----------|
|------------11---------------------11----------|
|----9-9-9-9--9-------------9-9-9-9--9----------|
|-7--------------7-7-7-7-7--------------7-7-7-7-|


  PM------------------------------|  ~~~
  E  S S S S  E  S S S S E  S S S S  Q      +E
|--------------------------------------------------|
|--------------------------------------------------|
|--------------------------------------------------|
|--------------------------------------------------|
|-4--------------4-4-4-4-4-------------------------|
|----1-1-1-1--1-------------1-1-1-1-[1]-----(1)/---|
|
| PM-------|     PM---------------|     PM----------
| E  S S S S  E  S S S S E  S S S S  E  S S  S   S
|--------------------------------------------------|
|--------------------------------------------------|
|------------10---------------------10-------------|
|------------10---------------------10-------------|
|----8-8-8-8--8-------------8-8-8-8--8-------------|
|-6--------------6-6-6-6-6--------------6-6--6---6-|


   PM----------|       PM---------|      PM------|
   E   S  S  S  S  E   S  S  S  S  S  S  S  S  S  S  E   +Q
|---------------------------------------------------------------|
|---------------------------------------------------------------|
|-----------------15--------------------------------------------|
|-----------------15--------------------------------15--(15)\---|
|-----13-13-13-13-13--------------------------------12--(12)\---|
|-11------------------11-11-11-11-10-10-10-10-10-10-------------|
|
|--------------|       PM---------|      PM------|
|  E   S  S  S  S  E   S  S  S  S  S  S  S  S  S  S  E   +Q
|---------------------------------------------------------------|
|---------------------------------------------------------------|
|-----------------15--------------------------------------------|
|-----------------15--------------------------------15--(15)\---|
|-----13-13-13-13-13--------------------------------12--(12)\---|
|-11------------------11-11-11-11-10-10-10-10-10-10-------------|


  Gtrs I, II
     PM    PM-|                   PM      PM|   PM
  Q  E E E E   E  H     +E     Q  E  E  E E E E E Q  +E
|---------------------------|----------------------------|
|---------------------------|----------------------------|
|---------------------------|-11----14s13-----2---1--(1)-|
|------7s6----12-11----(11)-|-11----11------------3--(3)-|
|-4----4------10--9-----(9)-|--9--9-------0-5---5-4--(4)-|
|-2--2-----2/-----9-----(9)-|----------------------------|


                             9/8
     PM    PM-|                   PM      PM|
  Q  E E E E   E  H     +E     Q  E  E  E E E E E
|---------------------------|---------------------||
|---------------------------|---------------------||
|---------------------------|-11----14s13---------||
|------7s6----12-11----(11)-|-11----11--------7-6-||
|-4----4------10--9-----(9)-|--9--9-------0-5-----||
|-2--2-----2/-----9-----(9)-|---------------------||


  Q=135
 4/4
  Gtr I
                            PM--|
  H     E E Q    H       Q  S S S S
|-------4------|--------------------|
|-7-------7----|-6-----/10----------|
|-6---------6--|-5------/9----------|
|-4------------|-3------/7--6-6-7-4-|
|--------------|--------------------|
|--------------|--------------------|
|
| Gtr II
|                           PM--|
| W              H       Q  S S S S
|--------------|--------------------|
|--------------|--------------------|
|--------------|--------------------|
|-4------------|-3------/7----------|
|-4------------|-3------/7----------|
|-2------------|-1------/5--4-4-5-2-|


              PM--|                 PM----|
              |-3-|
  Q  H    +E  S S S    E  E  Q   Q  S S S S
|-------------------|-----------------------||
|----7----(7)-------|-10s13-13\--6----------||
|----6----(6)-------|--9s12-12\--5----------||
|----4----(4)-4-4-4-|--7s10-10\--3--4-6-7-4-||
|-------------------|-----------------------||
|-------------------|-----------------------||
|
|             PM--|                 PM----|
|             |-3-|
| Q  H    +E  S S S    E  E  Q   Q  S S S S
|-------------------|-----------------------||
|-------------------|-----------------------||
|-------------------|-----------------------||
|----4----(4)-------|--7s10-10\--3----------||
|----4----(4)-------|--7s10-10\--3----------||
|----2----(2)-2-2-2-|--5s=8--8\--1--2-4-5-2-||


  Gtr I
  PM----|   PM--|   PM--|   PM--|     PM--|   PM--|   PM   PM------|
  S S S S S S S S S S S S S S S S   S S S S S S S S S S  S S S S S S
|---------------------------------|----------------------------------|
|-----------------5-------7-------|-4-------6-----------12-----------|
|---------6-----------------------|-----------------9----------------|
|---4-4-4---4-4-4---4-4-4---4-4-3-|---3-3-3---3-7-7---7----6-7-6-7---|
|-6-------------------------------|--------------------------------9-|
|---------------------------------|----------------------------------|
|
| Gtr II
| PM-------------------------------------------------------------|
| S S S S S S S S S S S S S S S S   S S S S S S S S S S  S S S S S S
|---------------------------------|----------------------------------|
|---------------------------------|--------------------------------7-|
|---------------------------------|-----------------6--------------6-|
|---------7-----------7-------7---|---------6---7-7---7--9-6-7---7-4-|
|-6-6-9-9---6-6-6-9-9---6-6-6---6-|-6-6-8-8---8----------------8-----|
|---------------------------------|----------------------------------|


   PM-------|   PM--|   PM--|   PM--|      PM--|    PM---|   PM  PM------|
   S   S  S S S S S S S S S S S S S S    S S S S  S S S  S S S S S S S S S
|-------------------------------------|------------------------------------|
|---------------------5-------7-------|-12-------10------------------------|
|-------------6-----------------------|--------------------6---7-----------|
|------4--4-4---4-4-4---4-4-4---4-7-7-|----7-7-7----7-4--4---4---6-7-6-7---|
|--6----------------------------------|----------------------------------9-|
|-------------------------------------|------------------------------------|
|
|         PM|                 PM--------------------|      PM------------|
| +E      S S H               S S S S    S S S S  S S E    S S S S S S S S
|-------------------------------------|------------------------------------|
|-(7)\--------7-----------------------|------------------------------------|
|-(6)\--------6-----------------------|------------------------------------|
|-(4)\---/4-4-4-----------------------|---------------4\-------------------|
|-----------------------------9-9-6-6-|--9-6-6-6--7-4----------------------|
|-------------------------------------|--------------------2-3-3-3-5-4-5-2-|


  PM----|   PM--|   PM--|   PM--|     PM--|   PM--|   PM   PM------|
  S S S S S S S S S S S S S S S S   S S S S S S S S S S  S S S S S S
|---------------------------------|----------------------------------|
|-----------------5-------7-------|-4-------6-----------12-----------|
|---------6-----------------------|-----------------9----------------|
|---4-4-4---4-4-4---4-4-4---4-4-3-|---3-3-3---3-7-7---7----6-7-6-7---|
|-6-------------------------------|--------------------------------9-|
|---------------------------------|----------------------------------|
|
| PM-------------------------------------------------------------|
| S S S S S S S S S S S S S S S S   S S S S S S S S S S  S S S S S S
|---------------------------------|----------------------------------|
|---------------------------------|--------------------------------7-|
|---------------------------------|-----------------6--------------6-|
|---------7-----------7-------7---|---------6---7-7---7--9-6-7---7-4-|
|-6-6-9-9---6-6-6-9-9---6-6-6---6-|-6-6-8-8---8----------------8-----|
|---------------------------------|----------------------------------|


   PM-------|   PM--|   PM--|   PM--|      PM--|    PM---|   PM  PM----|
   S   S  S S S S S S S S S S S S S S    S S S S  S S S  S S S S S S S S S
|-------------------------------------|------------------------------------||
|---------------------5-------7-------|-12-------10----------------------7-||
|-------------6-----------------------|--------------------6---7---------6-||
|------4--4-4---4-4-4---4-4-4---4-7-7-|----7-7-7----7-4--4---4---6-7-6-7-4-||
|--6----------------------------------|------------------------------------||
|-------------------------------------|------------------------------------||
|
|         PM|                 PM--------------------|      PM----------|
| +E      S S H               S S S S    S S S S  S S E    S S S S S S S S
|-------------------------------------|------------------------------------||
|-(7)\--------7-----------------------|------------------------------------||
|-(6)\--------6-----------------------|------------------------------------||
|-(4)\---/4-4-4-----------------------|---------------4\-----------------4-||
|-----------------------------9-9-6-6-|--9-6-6-6--7-4--------------------4-||
|-------------------------------------|--------------------2-3-3-3-5-4-5-2-||


  Gtrs I, II
  PM--------------------------------------|
  S   S  S  S  S  S  S  S  S  S  S  S  S  S  E
|-------------------------------------------------|
|-------------------------------------------------|
|-------------------------------------------------|
|-----5--5--5--8-----------------6----------------|
|-----------------4--4--4--4--4--------------8----|
|-----------------------------------6--6--6-------|


   PM------------------|             PM------------------|
   T  T  T  T  T  T  T  T  Q         T  T  T  T  T  T  T  T  Q
|-------------------------11--------------------------------10----||
|-------------------------11--------------------------------10----||
|-------------------------11--------------------------------10----||
|-------------------------15--------------------------------15----||
|-------------------------13--------------------------------13----||
|-11-11-11-11-11-11-11-11-11--------10-10-10-10-10-10-10-10-10----||


  Q=100
  Gtrs I, II
  PM--|     PM    PM--|     PM--|     PM--|     PM
  T T S  S  S  S  T T S  S  T T S  S  T T S  S  S  S
|----------------------------------------------------|
|----------------------------------------------------|
|----------------------------------------------------|
|--------------6---------4---------7---------6-----4-|
|--------4-------------------------------------------|
|-2-2-2-----2-----2-2-2-----2-2-2-----2-2-2-----2----|


  PM------------|    PM--|     PM--|     PM--|     PM
  T T T T T T T T S  T T S  S  T T S  S  T T S  S  S  S
|--------------------------------------------------------|
|--------------------------------------------------------|
|--------------------------------------------------------|
|-------------------------------------2---------3-----5--|
|-----------------3---------5----------------------------|
|-1-1-1-1-1-1-1-1----1-1-1-----1-1-1-----1-1-1-----1-----|


  PM--|     PM    PM--|     PM--|              ~
  T T S  S  S  S  T T S  S  T T S  S  S  S  S  E
|---------------------------------------------------|
|---------------------------------------------------|
|---------------------------------------------------|
|--------------6---------4---------4--6--7--6-------|
|--------4-------------------------------------4----|
|-2-2-2-----2-----2-2-2-----2-2-2-------------------|


   PM------------------|             PM------------------|
   T  T  T  T  T  T  T  T  Q         T  T  T  T  T  T  T  T  Q
|-------------------------11--------------------------------10----|
|-------------------------11--------------------------------10----|
|-------------------------11--------------------------------10----|
|-------------------------15--------------------------------15----|
|-------------------------13--------------------------------13----|
|-11-11-11-11-11-11-11-11-11--------10-10-10-10-10-10-10-10-10----|


  Gtr I
  PM--|      PM     PM--|      PM--|      PM--|      PM
  T T S   S  S   S  T T S   S  T T S   S  T T S   S  S   S
|----------------------------------------------------------|
|----------------------------------------------------------|
|---------------13---------11---------14---------13-----11-|
|--------11------------------------------------------------|
|-9-9-9------9------9-9-9------9-9-9------9-9-9------9-----|
|----------------------------------------------------------|
|
| Gtr II
| PM--|      PM     PM--|      PM--|      PM--|      PM
| T T S   S  S   S  T T S   S  T T S   S  T T S   S  S   S
|----------------------------------------------------------|
|----------------------------------------------------------|
|----------------------------------------------------------|
|----------------6----------4----------7----------6------4-|
|---------4------------------------------------------------|
|-2-2-2------2------2-2-2------2-2-2------2-2-2------2-----|


  PM------------|     PM--|      PM--|     PM--|      PM
  T T T T T T T T  S  T T S   S  T T S  S  T T S   S  S   S
|-------------------------------------------------------------|
|-------------------------------------------------------------|
|---------------------------------------9---------10-----12---|
|-----------------10---------12-------------------------------|
|-8-8-8-8-8-8-8-8-----8-8-8------8-8-8-----8-8-8------8-------|
|-------------------------------------------------------------|
|
| PM------------|     PM--|      PM--|     PM--|      PM
| T T T T T T T T  S  T T S   S  T T S  S  T T S   S  S   S
|-------------------------------------------------------------|
|-------------------------------------------------------------|
|-------------------------------------------------------------|
|---------------------------------------2----------3------5---|
|------------------3----------5-------------------------------|
|-1-1-1-1-1-1-1-1-----1-1-1------1-1-1-----1-1-1------1-------|


  PM--|      PM     PM--|      PM--|                   ~~
  T T S   S  S   S  T T S   S  T T S   S   S   S   S   E
|-----------------------------------------------------------|
|-----------------------------------------------------------|
|---------------13---------11---------11--13--14--13--------|
|--------11-------------------------------------------11----|
|-9-9-9------9------9-9-9------9-9-9------------------------|
|-----------------------------------------------------------|
|
| PM--|      PM     PM--|      PM--|                   ~~
| T T S   S  S   S  T T S   S  T T S   S   S   S   S   E
|-----------------------------------------------------------|
|-----------------------------------------------------------|
|-----------------------------------------------------------|
|----------------6----------4----------4---6---7---6--------|
|---------4--------------------------------------------4----|
|-2-2-2------2------2-2-2------2-2-2------------------------|


   PM------------------|             PM------------------|
   T  T  T  T  T  T  T  T  Q         T  T  T  T  T  T  T  T  Q
|-------------------------11--------------------------------10\----||
|-------------------------11--------------------------------10\----||
|-------------------------11--------------------------------10\----||
|-------------------------15--------------------------------15\----||
|-------------------------13--------------------------------13\----||
|-11-11-11-11-11-11-11-11-11--------10-10-10-10-10-10-10-10-10\----||
|
|  PM------------------|             PM------------------|
|  T  T  T  T  T  T  T  T  Q         T  T  T  T  T  T  T  T  Q
|-------------------------11--------------------------------10\----||
|-------------------------11--------------------------------10\----||
|-------------------------11--------------------------------10\----||
|-------------------------15--------------------------------15\----||
|-------------------------13--------------------------------13\----||
|-11-11-11-11-11-11-11-11-11--------10-10-10-10-10-10-10-10-10\----||


  Gtr III
   W          +W
|-^0--------|-(0)-----------|
|-^0--------|-(0)-----------|
|-^3--------|-(3)-----------|
|-^4--------|-(4)-----------|
|-^4--------|-(4)-----------|
|-^2--------|-(2)-----------|
|
| Gtr IV
|  W           Q   Q  Q  Q
|-^0--------|--0------------|
|-^0--------|------0--------|
|-^3--------|---------3-----|
|-^4--------|------------4--|
|-^4--------|---------------|
|-^2--------|---------------|


  +W           +W
|-(0)--------|-(0)----*|
|-(0)--------|-(0)----*|
|-(3)--------|-(3)----*|
|-(4)--------|-(4)----*|
|-(4)--------|-(4)----*|
|-(2)--------|-(2)----*|
|
|  W           +W
|------------|--------*|
|------------|--------*|
|------------|--------*|
|------------|--------*|
|------------|--------*|
|--2---------|-(2)----*|


Duration Legend
---------------
W - whole; H - half; Q - quarter; E - 8th; S - 16th; T - 32nd; X - 64th; a - acciaccatura
+ - note tied to previous; . - note dotted; .. - note double dotted
Uncapitalized letters represent notes that are staccato (1/2 duration)
Irregular groupings are notated above the duration line
Duration letters will always appear directly above the note/fret number it represents the
duration for.  Duration letters with no fret number below them represent rests.  Multi-
bar rests are notated in the form Wxn, where n is the number of bars to rest for.  Low
melody durations appear below the staff

Tablature Legend
----------------
 h   - hammer-on
 p   - pull-off
 b   - bend
 pb  - pre-bend
 r   - bend release (if no number after the r, then release immediately)
 /\  - slide into or out of (from/to "nowhere")
 s   - legato slide
 S   - shift slide
  - natural harmonic
[n]  - artificial harmonic
n(n) - tapped harmonic
 ~   - vibrato
 tr  - trill
 T   - tap
 TP  - trem. picking
 PM  - palm muting
\n/  - tremolo bar dip; n = amount to dip
 \n  - tremolo bar down
 n/  - tremolo bar up
/n\  - tremolo bar inverted dip
 =   - hold bend; also acts as connecting device for hammers/pulls
   - volume swell (louder/softer)
 x   - on rhythm slash represents muted slash
 o   - on rhythm slash represents single note slash

Misc Legend
-----------
 |  - bar
||  - double bar
||o - repeat start
o|| - repeat end
*|  - double bar (ending)
 :  - bar (freetime)
 $  - Segno
 &  - Coda
Tempo markers -  = BPM(8/16=s8/s16), where s8 = swing 8ths, s16 = swing 16ths


***************************************************************************************
**************************************************************************************





Comments


Popular Cynic tabs & chords
Adam's Murmur Bass Tabs
Celestial Voyage Tabs
Evolutionary Sleeper Tabs
How Could I Tabs
I Am But A Wave To Tabs
Integral From Re-traced Tabs
Textures Tabs
The Eagle Nature Tabs
The Unknown Guest Intro Tabs
Veil Of Maya 2 Tabs


Song lyrics



↑ Back to top | Tablatures and chords are parodies/interpretations of the original songs. You may use it for private study, scholarship, research or language learning purposes only
© 2014 AZChords.com Contact us | Privacy policy | DMCA | Add/correct tabs | Request tabs | Top 50 tabs