>
 >
The Eagle Nature

The Eagle Nature Guitar Tabs

Cynic - The Eagle Nature chords, tabs, tablatures, lyrics

Guitar lessons | Add/correct | Request | Top 50 tabs Artists:  A B C D E F G H I J K L M N O P Q R S T U V W X Y Z 0-9

The Eagle Nature Guitar Tabs – Cynic

CD, Sheet music, Poster

Do you like The Eagle Nature? Share with your friends now
Tabs
Look for a more detailed and constant updated version with powertab at 

                                THE EAGLE NATURE
                              As recorded by Cynic
                           (From the 1993 Album FOCUS)

Words by Paul Masvidal Music by Cynic

Gtr I (E A D G B E) - 'Paul (distortion)'
Gtr II (E A D G B E) - 'Jason (distortion)'
Gtr III (E A D G B E) - 'Paul (clean tone)'
Gtr IV (E A D G B E) - 'Jason (clean tone)'
Gtr V (E A D G B E) - 'Keyboard'
Gtr VI (E A D G B E) - 'Strings'

  Q=255
 4/4
  Gtr I
  PM---------------------------------------------------
       |-3-|
  Q    E E E Q    Q        E   E  E  E   E   E  E  E
|----------------------|------------------------------|
|----------------------|------------------------------|
|----------------------|------------------------------|
|----------------------|----------5--3---2------------|
|-2----------2----2----|---------------------3--------|
|-0----0-0-0-0----0----|---0---1----------------5--5--|
|
| Gtr II
|                                        \7
| W                       +H            +H
|----------------------|------------------------------|
|----------------------|------------------------------|
|----------------------|------------------------------|
|----------------------|------------------------------|
|----------------------|------------------------------|
|-0--------------------|--(0)-----------(0)-----------|


 ------------------------------------------------------|
    E   E  E  E  E  E  E  E      E   E  E  E  E  E  E  E
|----------------------------|---------------------------|
|----------------------------|---------------------------|
|----------------------------|---------------------------|
|---1------------------------|---------------------------|
|-------2--------1--1--0--0--|----------3--3-------------|
|----------1--1--------------|---4---4--------3--3--3--3-|
|
|  +W                           +W
|----------------------------|---------------------------|
|----------------------------|---------------------------|
|----------------------------|---------------------------|
|----------------------------|---------------------------|
|----------------------------|---------------------------|
|--(0)-----------------------|--(0)----------------------|


  PM----------------------------|
  E E E E Q  Q    E E E E E E E E
|---------------|-----------------|
|---------------|-----------------|
|---------------|-----------------|
|---------------|-----5-3-2-------|
|---------3--2--|-----------3-----|
|-1-1-1-1-1--0--|-1-1---------5-5-|
|
| PM----------------------------|
| E E E E Q  Q    E E E E E E E E
|---------------|-----------------|
|---------------|-----------------|
|---------------|-----------------|
|---------------|-----5-3-2-------|
|---------3--2--|-----------3-----|
|-1-1-1-1-1--0--|-1-1---------5-5-|


             PM|                    PM|
  H          E  E  Q      H         E  E Q
|-----------------------|---------------------||
|-7----------------7----|-6--------------6----||
|-5----------------5----|-4--------------4----||
|-4----------------4----|-3--------------3----||
|-----------------------|---------------------||
|------------0--0-------|-----------0--0------||
|
| E  E  E  E E  E  E  E   E  E E  E E  E E  E
|-----------------------|---------------------||
|-----------------------|---------------------||
|---11-10-11---11-10-11-|---10-9-10---10-9-10-||
|-9----------9----------|-8---------8---------||
|-----------------------|---------------------||
|-----------------------|---------------------||


    Gtrs I, II
    PM------------|     PM       PM----|     PM    PM
         |-3-|
    Q    E E E E  E  E  E     E  E  E  E  E  E  E  E
||-------------------------|--------------------------|
||o------------------------|--------------------------|
||-------------------------|--------------------------|
||-------------------5-----|--4-----------4-----3-----|
||o---------------------0--|-----1--1--1--------------|
||--0----0-0-0-0--0--------|-----------------6-----5--|


      PM----|     PM----|        PM----------|     PM
   E  E  E  E  E  E  E  E     E  E  E  E  E  E  E  E
|--------------------------|-------------------------|
|--------------------------|-------------------------|
|--------------------------|-------------------------|
|--2-----------2-----------|--2----------------------|
|--------------------------|--------------------3----|
|-----5--5--5-----5--5--5--|-----5--5--5--3--3-----3-|


  PM------------|     PM       PM----|     PM    PM
       |-3-|
  Q    E E E E  E  E  E     E  E  E  E  E  E  E  E
|------------------------|--------------------------|
|------------------------|--------------------------|
|------------------------|--------------------------|
|------------------5-----|--4-----------4-----3-----|
|---------------------0--|-----1--1--1--------------|
|-0----0-0-0-0--0--------|-----------------6-----5--|


      PM----|     PM    PM-------|     PM    PM ~
   E  E  E  E  E  E  E  E     E  E  E  E  E  E  Q
|--------------------------|--------------------------||
|--------------------------|-------------------------o||
|--------------------------|--------------------------||
|--2-----------2-----4-----|--------4-----5-----4-----||
|--------------------------|-------------------------o||
|-----5--5--5-----5-----7--|--7--7-----7-----8--------||


  Gtrs I, II
  PM--------|     PM-------------------------|   PM---
  |-3-| |-3-|     |-3-|    |--3--| |-3-| |-3-| |-3-|
  E E E E E E  Q  E E E    E  E  E E E E E E E E E E
|-----------------------|----------------------------|
|-----------------------|----------------------------|
|-----------------------|----------------------------|
|-------------10--------|-10-10-10-9-9-9-------9-----|
|-7-7-7-7-7-7-----5-5-5-|----------------6-6-6---6-6-|
|-----------------------|----------------------------|


 -----------|    PM------|     PM------|
  |-3-| |-3-|  |-3-| |-3-|   |-3-| |-3-|
  E E E E E E  E E E E E E   E E E E E E H
|--------------------------|------------------|
|--------------------------|------------------|
|--------------------------|------------------|
|--------------------------|------------------|
|-------------10-----------|-9-----------2----|
|-7-7-7-7-7-7----7-7-7-7-7-|---7-7-7-7-7-0----|


  Gtr I
  PM--------|     PM-------------------------|   PM|
  |-3-| |-3-|     |-3-|    |--3--| |-3-| |-3-| |-3-|
  E E E E E E  Q  E E E    E  E  E E E E E E E E E E
|-----------------------|----------------------------|
|-----------------------|----------------------------|
|-----------------------|----------------------------|
|-------------10--------|-10-10-10-9-9-9-------9-----|
|-7-7-7-7-7-7-----5-5-5-|----------------6-6-6---6-6-|
|-----------------------|----------------------------|
|
| Gtr II
| PM--------|     PM-------------------------|   PM|
| |-3-| |-3-|     |-3-|    |--3--| |-3-| |-3-| |-3-|
| E E E E E E  Q  E E E    E  E  E E E E E E E E E E
|-----------------------|----------------------------|
|-----------------------|----------------------------|
|-----------------------|----------------------------|
|-------------10--------|-10-10-10-9-9-9-------9-----|
|-7-7-7-7-7-7-----5-5-5-|----------------6-6-6---6-6-|
|-----------------------|----------------------------|


  H      H         H      H
|---------------|--------------|
|---------------|--------------|
|-9------7------|--------------|
|---------------|-10------9----|
|-7------5------|--------------|
|---------------|--8------7----|
|
| H      H         H      H
|---------------|--------------|
|---------------|--------------|
|--------4------|--5-----------|
|-5------4------|--5------4----|
|-5------2------|--3------4----|
|-3-------------|---------2----|


  Gtrs I, II
  PM--------|     PM-------------------------|   PM---
  |-3-| |-3-|     |-3-|    |--3--| |-3-| |-3-| |-3-|
  E E E E E E  Q  E E E    E  E  E E E E E E E E E E
|-----------------------|----------------------------|
|-----------------------|----------------------------|
|-----------------------|----------------------------|
|-------------10--------|-10-10-10-9-9-9-------9-----|
|-7-7-7-7-7-7-----5-5-5-|----------------6-6-6---6-6-|
|-----------------------|----------------------------|


 -----------|    PM------|     PM------|
  |-3-| |-3-|  |-3-| |-3-|   |-3-| |-3-|
  E E E E E E  E E E E E E   E E E E E E H
|--------------------------|------------------|
|--------------------------|------------------|
|--------------------------|------------------|
|--------------------------|------------------|
|-------------10-----------|-9-----------2----|
|-7-7-7-7-7-7----7-7-7-7-7-|---7-7-7-7-7-0----|


  Gtr I
  PM--------|     PM-------------------------|   PM|
  |-3-| |-3-|     |-3-|    |--3--| |-3-| |-3-| |-3-|
  E E E E E E  Q  E E E    E  E  E E E E E E E E E E
|-----------------------|----------------------------|
|-----------------------|----------------------------|
|-----------------------|----------------------------|
|-------------10--------|-10-10-10-9-9-9-------9-----|
|-7-7-7-7-7-7-----5-5-5-|----------------6-6-6---6-6-|
|-----------------------|----------------------------|
|
| Gtr II
| PM--------|     PM-------------------------|   PM|
| |-3-| |-3-|     |-3-|    |--3--| |-3-| |-3-| |-3-|
| E E E E E E  Q  E E E    E  E  E E E E E E E E E E
|-----------------------|----------------------------|
|-----------------------|----------------------------|
|-----------------------|----------------------------|
|-------------10--------|-10-10-10-9-9-9-------9-----|
|-7-7-7-7-7-7-----5-5-5-|----------------6-6-6---6-6-|
|-----------------------|----------------------------|


                         PM|
  H    H       H     Q   E E
|-----------|----------------|
|-----------|----------------|
|-9----7----|----------------|
|-----------|-10-----9-------|
|-7----5----|----------------|
|-----------|--8-----7---0-0-|
|
|                        PM|
| H    H       H     Q   E E
|-----------|----------------|
|-----------|----------------|
|------4----|--5-------------|
|-5----4----|--5-----4-------|
|-5----2----|--3-----4-------|
|-3---------|--------2---0-0-|


   W           +H      Q  Q
|-----------|----------------||
|-----------|----------------||
|-----------|----------------||
|-10--------|-(10)----10-----||
|--7--------|--(7)-----7-----||
|--8--------|--(8)-----8-----||
|
|  W           +H      Q  Q
|-----------|----------------||
|-----------|----------------||
|--5--------|--(5)-----5-----||
|--2--------|--(2)-----2-----||
|--3--------|--(3)-----3-----||
|-----------|----------------||


  Gtrs I, II
  PM------------|     PM       PM----|     PM    PM
       |-3-|
  Q    E E E E  E  E  E     E  E  E  E  E  E  E  E
|------------------------|--------------------------|
|------------------------|--------------------------|
|------------------------|--------------------------|
|------------------5-----|--4-----------4-----3-----|
|---------------------0--|-----1--1--1--------------|
|-0----0-0-0-0--0--------|-----------------6-----5--|


      PM----|     PM----|        PM----------|     PM
   E  E  E  E  E  E  E  E     E  E  E  E  E  E  E  E
|--------------------------|---------------------------|
|--------------------------|---------------------------|
|--------------------------|---------------------------|
|--2-----------2-----------|--2------------------------|
|--------------------------|--------------------3------|
|-----5--5--5-----5--5--5--|-----5--5--5--3--3-----3---|


  Gtr I
   H           Q      Q         +Q       H            Q
|---------------------------|-------------------------------|
|---------------------------|-------------------------------|
|-12----------12-----11-----|--(11)-----11-----------12-----|
|--9-----------9------9-----|---(9)------9------------9-----|
|---------------------------|-------------------------------|
|---------------------------|-------------------------------|
|
| Gtr II
|  PM-------------|      PM          PM-----|     PM     PM
|       |-3-|
|  Q    E E E  E  E   E  E       E   E   E  E  E  E   E  E
|---------------------------|-------------------------------|
|---------------------------|-------------------------------|
|---------------------------|-------------------------------|
|---------------------5-----|----4-------------4------3-----|
|------------------------0--|--------1---1--1---------------|
|--0----0-0-0--0--0---------|---------------------6------5--|


    H           Q      Q         +Q       Q      Q      Q
|----------------------------|-------------------------------|
|----------------------------|-------------------------------|
|--11-----------9-----11-----|--(11)-----11-----12-----11----|
|---9-----------9------9-----|---(9)------9------9------9----|
|----------------------------|-------------------------------|
|----------------------------|-------------------------------|
|
|      PM----|     PM     PM----------|      PM     PM  ~~
|   E  E  E  E  E  E   E  E       E   E   E  E   E  E   Q
|----------------------------|-------------------------------|
|----------------------------|-------------------------------|
|----------------------------|-------------------------------|
|---2-----------2------4-----|------------4------5------4----|
|----------------------------|-------------------------------|
|------5--5--5-----5------7--|----7---7------7------8--------|


  Gtrs I, II
  PM------------|     PM       PM----|     PM    PM
       |-3-|
  Q    E E E E  E  E  E     E  E  E  E  E  E  E  E
|------------------------|--------------------------|
|------------------------|--------------------------|
|------------------------|--------------------------|
|------------------5-----|--4-----------4-----3-----|
|---------------------0--|-----1--1--1--------------|
|-0----0-0-0-0--0--------|-----------------6-----5--|


      PM----|     PM----|        PM----------|     PM
   E  E  E  E  E  E  E  E     E  E  E  E  E  E  E  E
|--------------------------|---------------------------|
|--------------------------|---------------------------|
|--------------------------|---------------------------|
|--2-----------2-----------|--2------------------------|
|--------------------------|--------------------3------|
|-----5--5--5-----5--5--5--|-----5--5--5--3--3-----3---|


  Gtr I
   H           Q      Q         +Q       H            Q
|---------------------------|-------------------------------|
|---------------------------|-------------------------------|
|-12----------12-----11-----|--(11)-----11-----------12-----|
|--9-----------9------9-----|---(9)------9------------9-----|
|---------------------------|-------------------------------|
|---------------------------|-------------------------------|
|
| Gtr II
|  PM-------------|      PM          PM-----|     PM     PM
|       |-3-|
|  Q    E E E  E  E   E  E       E   E   E  E  E  E   E  E
|---------------------------|-------------------------------|
|---------------------------|-------------------------------|
|---------------------------|-------------------------------|
|---------------------5-----|----4-------------4------3-----|
|------------------------0--|--------1---1--1---------------|
|--0----0-0-0--0--0---------|---------------------6------5--|


    H           Q      Q         +Q       Q      Q      Q
|----------------------------|-------------------------------||
|----------------------------|-------------------------------||
|--12-----------9-----11-----|--(11)-----11-----12-----11----||
|---9-----------9------9-----|---(9)------9------9------9----||
|----------------------------|-------------------------------||
|----------------------------|-------------------------------||
|
|      PM----|     PM     PM----------|      PM     PM  ~~
|   E  E  E  E  E  E   E  E       E   E   E  E   E  E   Q
|----------------------------|-------------------------------||
|----------------------------|-------------------------------||
|----------------------------|-------------------------------||
|---2-----------2------4-----|------------4------5------4----||
|----------------------------|-------------------------------||
|------5--5--5-----5------7--|----7---7------7------8--------||


  Gtr I
                                           PM--------|
                                                 |-3-|
  W                       +H               Q     E E E
|-----------------------|------------------------------|
|-----------------------|------------------------------|
|-9---------------------|-(9)\-------------------------|
|-----------------------|------------------------------|
|-7---------------------|-(7)\-------------------------|
|-----------------------|------------------3-----5-5-5-|
|
| Gtr II
| PM--------|     PM---------------------------|   PM---
| |-3-| |-3-|     |-3-|    |---3---| |-3-| |-3-| |-3-|
| E E E E E E  Q  E E E    E    E  E E E E E E E E E E
|-----------------------|------------------------------|
|-----------------------|------------------------------|
|-----------------------|------------------------------|
|-------------10--------|-10---10-10-9-9-9-------9-----|
|-7-7-7-7-7-7-----5-5-5-|------------------6-6-6---6-6-|
|-----------------------|------------------------------|


                PM--------|         PM--|
                      |-3-|         |-3-|
  H             Q     E E E   Q     E E E   H
|---------------------------|--------------------|
|---------------------------|--------------------|
|---------------------------|-------------/12----|
|---------------------------|--------------------|
|-9\------------------------|-9-----------/10----|
|-7\------------3-----5-5-5-|-7-----7-7-7--------|
|
|------------|    PM------|     PM------|
| |-3--| |-3-|  |-3-| |-3-|   |-3-| |-3-|
| E  E E E E E  E E E E E E   E E E E E E   H
|---------------------------|--------------------|
|---------------------------|--------------------|
|---------------------------|--------------------|
|---------------------------|--------------------|
|--------------10-----------|-9-------------2----|
|-7--7-7-7-7-7----7-7-7-7-7-|---7-7-7-7-7---0----|


   Q.          +E     H
|------------------------------|
|------------------------------|
|-11----------(11)s===9--------|
|------------------------------|
|--9-----------(9)s===7--------|
|------------------------------|
|
|  PM--------------|     PM-----
|  |-3--| |---3----|     |-3-|
|  E  E E E E      E  Q  E E E
|------------------------------|
|------------------------------|
|------------------------------|
|--------------------10--------|
|--7--7-7-7-7------7-----5-5-5-|
|------------------------------|


                        PM--|
                        |-3-|
  +H              Q     E E E   H      H         H      H
|-----------------------------|---------------|--------------|
|-----------------------------|---------------|--------------|
|-(9)-------------------------|-9------7------|--------------|
|-----------------------------|---------------|-10------9----|
|-(7)-------------------------|-7------5------|--------------|
|-----------------3-----5-5-5-|---------------|--8------7----|
|
|---------------------|   PM|
|  |--3---| |-3-| |-3-| |-3-|
|  E   E  E E E E E E E E E E   H      H         H      H
|-----------------------------|---------------|--------------|
|-----------------------------|---------------|--------------|
|-----------------------------|--------4------|--5-----------|
|-10--10-10-9-9-9-------9-----|-5------4------|--5------4----|
|-----------------6-6-6---6-6-|-5------2------|--3------4----|
|-----------------------------|-3-------------|---------2----|


                                           PM--------|
                                                 |-3-|
  W                       +H               Q     E E E
|-----------------------|------------------------------|
|-----------------------|------------------------------|
|-9---------------------|-(9)\-------------------------|
|-----------------------|------------------------------|
|-7---------------------|-(7)\-------------------------|
|-0---------------------|-(0)--------------3-----5-5-5-|
|
| PM--------|     PM---------------------------|   PM---
| |-3-| |-3-|     |-3-|    |---3---| |-3-| |-3-| |-3-|
| E E E E E E  Q  E E E    E    E  E E E E E E E E E E
|-----------------------|------------------------------|
|-----------------------|------------------------------|
|-----------------------|------------------------------|
|-------------10--------|-10---10-10-9-9-9-------9-----|
|-7-7-7-7-7-7-----5-5-5-|------------------6-6-6---6-6-|
|-----------------------|------------------------------|


                PM--------|         PM--|
                      |-3-|         |-3-|
  H             Q     E E E   Q     E E E   H
|---------------------------|--------------------|
|---------------------------|--------------------|
|---------------------------|-------------/14----|
|---------------------------|--------------------|
|-9\------------------------|-9-----------/12----|
|-7\------------3-----5-5-5-|-7-----7-7-7--------|
|
|------------|    PM------|     PM------|
| |-3--| |-3-|  |-3-| |-3-|   |-3-| |-3-|
| E  E E E E E  E E E E E E   E E E E E E   H
|---------------------------|--------------------|
|---------------------------|--------------------|
|---------------------------|--------------------|
|---------------------------|--------------------|
|--------------10-----------|-9-------------2----|
|-7--7-7-7-7-7----7-7-7-7-7-|---7-7-7-7-7---0----|


   Q.          +E     H
|------------------------------|
|------------------------------|
|-12----------(12)s===9--------|
|------------------------------|
|-10----------(10)s===7--------|
|------------------------------|
|
|  PM--------------|     PM-----
|  |-3--| |---3----|     |-3-|
|  E  E E E E      E  Q  E E E
|------------------------------|
|------------------------------|
|------------------------------|
|--------------------10--------|
|--7--7-7-7-7------7-----5-5-5-|
|------------------------------|


                        PM--|
                        |-3-|
  +H              Q     E E E   H      H         H      H
|-----------------------------|---------------|--------------|
|-----------------------------|---------------|--------------|
|-(9)-------------------------|-9------7------|--------------|
|-----------------------------|---------------|-10------9----|
|-(7)-------------------------|-7------5------|--------------|
|-----------------3-----5-5-5-|---------------|--8------7----|
|
|---------------------|   PM|
|  |--3---| |-3-| |-3-| |-3-|
|  E   E  E E E E E E E E E E   H      H         H      H
|-----------------------------|---------------|--------------|
|-----------------------------|---------------|--------------|
|-----------------------------|--------4------|--5-----------|
|-10--10-10-9-9-9-------9-----|-5------4------|--5------4----|
|-----------------6-6-6---6-6-|-5------2------|--3------4----|
|-----------------------------|-3-------------|---------2----|


  H       H         H       Q  Q
|-----------------|---------------||
|-----------------|---------------||
|-----------------|---------------||
|-7-------6-------|-5-------4-----||
|-----------------|---------------||
|-5-------4-------|-3-------2-----||
|
| PM      PM        PM
| E E E E E E E E   E E E E Q  Q
|-----------------|---------------||
|-----------------|---------------||
|---9-8-9---8-7-8-|---7-6-7-6-----||
|-7-------6-------|-5-------4-----||
|-----------------|---------------||
|-----------------|---------------||


    Q=123
    Gtr III
     Q.       E   Q    E   E    +E   E   E  E   E  E  Q
||----------------------------|-------------5---------------|
||o-^0-----------^0-------^0--|-(0)--5-------------5--------|
||--^5-----------^5-------^5--|-(5)------5------------5-----|
||--^9-----------^7-------^9--|-(9)-------------7-----------|
||o-^7-----------^7-------^7--|-(7)-------------------------|
||------------0--------0------|-----------------------------|
|
|   Gtr IV
|        ~        ~~       ~~            ~
|    E   Q    E   Q    E   E    +E   E a Q    a Q     E  E
||----------------------------|-----------------------------|
||o---------------------------|-----------------------------|
||-------4-----------------4--|-(4)-------------------------|
||----------------7-----------|------5-5s7------------------|
||o-----------7--------7------|-----------------------------|
||--/5------------------------|---------------5s7-----5p=0--|


    Q     E   Q      Q      E     +Q.        E  E  E  Q
|------------------------------|----------------0----------||
|--^0--------^0------------^0--|--(0)---------------------o||
|--^6-----6--^7------7-----^5--|--(5)--------------0-------||
|--^6--------^7------------^7--|--(7)----------------------||
|--^4--------^5------------^7--|--(7)--------7--------7---o||
|------------------------------|---------------------------||
|
|   E  E  E   E   E  E  E   E     +E   E  E  E  H
|---9--------10----------------|-------5-------------------||
|------9---------10------------|----------5---------------o||
|---------6----------7---------|-------------5-------------||
|------------------------------|----------------9----------||
|-----------------------0------|--------------------------o||
|---------------------------5--|--(5)----------------------||


  Gtr I
          PM|                   PM------|
  Q    E  S S E  E  E  E   +E   E  E  S S E    E     E     E
|-------------3----------|------------------------------------|
|----------------3-------|--------------------------------|
|------0------------0----|--------------------------------|
|-4-------4-4----------4-|-(4)----------------------------|
|-3----------------------|------9--9------9-------------------|
|------------------------|------8--8--8-8-8-------------------|
|
| Gtr II
|         PM                    PM-----------------|
| Q    E  E   E  E  E  E   +E   E  E  E   E    E     E     E
|-------------3----------|------------------------------------|
|----------------3-------|---------------------------------7--|
|------0------------0----|------5--5--5---5----5-----5-----5--|
|-4-------4------------4-|-(4)--4--4--4---4----4-----4-----4--|
|-3----------------------|------------------------------------|
|------------------------|------------------------------------|


   +E    H.                  +E
|-----------------------(12)---||
|-(12)-----------------------------||
|----------------------------------||
|----------------------------------||
|----------------------------------||
|----------------------------------||
|
|                             PM-|
|   E    E   E  E  E  E  E    S  S
|----------------------------------||
|------------------------7---------||
|--------5---5--5--5--5--5---------||
|--------4---4--4--4--4--4---------||
|----------------------------------||
|-----------------------------0--0-||


        PM|     PM|         PM         PM----|     PM|              PM--
   +E   S S  E  S S E    E  E   E      E   S S  E  S S  E   E    E  E
|-(12)-----------------------------|-----------------------------------|
|----------------------------------|-----------------------------------|
|-------------------6--------------|------------------------6----------|
|-----------10----------10-----10--|-----------10------10-------10-----|
|---------------------------9------|--------------------------------9--|
|-------8-8-----8-8----------------|---x---8-8-----8-8-----------------|
|
|                                                                PM-|
|   H               Q.          E     +E   H               +E    E  E
|----------------------------------|-----------------------------------|
|----------------------------------|-----------------------------------|
|----------------------------------|-----------------------------------|
|---5---------------3-----------4--|--(4)s=5---------------(5)---------|
|---3---------------1-----------2--|--(2)s=3---------------(3)---------|
|---3---------------1-----------2--|--(2)s=3---------------(3)---0--0--|


 -------|     PM|         PM         PM-----|      PM|               PM
   E  S S  E  S S E    E  E   E      E    S S  E   S S  E     E   E  E
|--------------------------------|---------------------------------------|
|--------------------------------|---------------------------------------|
|-----------------6--------------|----------------------------6----------|
|---------10----------10-----10--|------------10-------10--------10------|
|-------------------------9------|-----------------------------------9---|
|--x--8-8-----8-8----------------|---x----8-8------8-8-------------------|
|
|                                                                 PM---|
|  H              Q.          E     +Q         Q.         +E      E  S S
|--------------------------------|---------------------------------------|
|--------------------------------|---------------------------------------|
|--------------------------------|---------------------------------------|
|--5--------------4-----------5--|--(5)/-------9----------(9)------------|
|--3--------------2-----------3--|--(3)/-------7----------(7)------------|
|--3--------------2-----------3--|--(3)--------0----------(0)-----0--0-0-|


     PM|     PM|         PM         PM----|     PM|            PM
  E  S S  E  S S E    E  E   E      E   S S  E  S S  E  E   E  E
|-------------------------------|---------------------------------|
|-------------------------------|---------------------------------|
|----------------6--------------|-----------------------6---------|
|--------10----------10-----10--|-----------10------10-----10-----|
|------------------------9------|------------------------------9--|
|-x--8-8-----8-8----------------|---x---8-8-----8-8---------------|
|
|                                                           PM-|
| H              Q.          E     +H.                      E  E
|-------------------------------|---------------------------------|
|-------------------------------|---------------------------------|
|-------------------------------|---------------------------------|
|-5--------------3-----------5--|--(5)----------------------------|
|-3--------------1-----------3--|--(3)----------------------------|
|-3--------------1-----------3--|--(3)----------------------0--0--|


      PM--------------|               PM----------|
   E  E  E  E  E   E  E   E      E    E  E  E  E   E    Q
|----------------------------|--------------------------------||
|----------------------------|--------------------------------||
|----------------------------|--------------------------------||
|------------------------10--|-------------------------10\----||
|-----9--9--9--9---9--9---9--|--------9--9--9--9---9----9\----||
|-----8--8--8--8---8--8---8--|--------8--8--8--8---8----8\----||
|
|  H           Q.         E     +E    H           +Q.
|----------------------------|--------------------------------||
|----------------------------|--------------------------------||
|----------------------------|--------------------------------||
|--5-----------4----------5--|--(5)/--9-----------(9)---------||
|--3-----------2----------3--|--(3)/--7-----------(7)---------||
|--3-----------2----------3--|--(3)---0-----------(0)---------||


  Q=255
  Gtr I
                                           PM--------|
                                                 |-3-|
  W                       +H               Q     E E E
|-----------------------|------------------------------|
|-----------------------|------------------------------|
|-9---------------------|-(9)\-------------------------|
|-----------------------|------------------------------|
|-7---------------------|-(7)\-------------------------|
|-----------------------|------------------3-----5-5-5-|
|
| Gtr II
| PM--------|     PM---------------------------|   PM---
| |-3-| |-3-|     |-3-|    |---3---| |-3-| |-3-| |-3-|
| E E E E E E  Q  E E E    E    E  E E E E E E E E E E
|-----------------------|------------------------------|
|-----------------------|------------------------------|
|-----------------------|------------------------------|
|-------------10--------|-10---10-10-9-9-9-------9-----|
|-7-7-7-7-7-7-----5-5-5-|------------------6-6-6---6-6-|
|-----------------------|------------------------------|


                PM--------|         PM--|
                      |-3-|         |-3-|
  H             Q     E E E   Q     E E E   H
|---------------------------|--------------------|
|---------------------------|--------------------|
|---------------------------|-------------/12----|
|---------------------------|--------------------|
|-9\------------------------|-9-----------/10----|
|-7\------------3-----5-5-5-|-7-----7-7-7--------|
|
|------------|    PM------|     PM------|
| |-3--| |-3-|  |-3-| |-3-|   |-3-| |-3-|
| E  E E E E E  E E E E E E   E E E E E E   H
|---------------------------|--------------------|
|---------------------------|--------------------|
|---------------------------|--------------------|
|---------------------------|--------------------|
|--------------10-----------|-9-------------2----|
|-7--7-7-7-7-7----7-7-7-7-7-|---7-7-7-7-7---0----|


   Q.          +E     H
|------------------------------|
|------------------------------|
|-11----------(11)s===9--------|
|------------------------------|
|--9-----------(9)s===7--------|
|------------------------------|
|
|  PM--------------|     PM-----
|  |-3--| |---3----|     |-3-|
|  E  E E E E      E  Q  E E E
|------------------------------|
|------------------------------|
|------------------------------|
|--------------------10--------|
|--7--7-7-7-7------7-----5-5-5-|
|------------------------------|


                        PM--|
                        |-3-|
  +H              Q     E E E   H      H         H      H
|-----------------------------|---------------|--------------|
|-----------------------------|---------------|--------------|
|-(9)-------------------------|-9------7------|--------------|
|-----------------------------|---------------|-10------9----|
|-(7)-------------------------|-7------5------|--------------|
|-----------------3-----5-5-5-|---------------|--8------7----|
|
|---------------------|   PM|
|  |--3---| |-3-| |-3-| |-3-|
|  E   E  E E E E E E E E E E   H      H         H      H
|-----------------------------|---------------|--------------|
|-----------------------------|---------------|--------------|
|-----------------------------|--------4------|--5-----------|
|-10--10-10-9-9-9-------9-----|-5------4------|--5------4----|
|-----------------6-6-6---6-6-|-5------2------|--3------4----|
|-----------------------------|-3-------------|---------2----|


                                           PM--------|
                                                 |-3-|
  W                       +H               Q     E E E
|-----------------------|------------------------------|
|-----------------------|------------------------------|
|-9---------------------|-(9)\-------------------------|
|-----------------------|------------------------------|
|-7---------------------|-(7)\-------------------------|
|-0---------------------|-(0)--------------3-----5-5-5-|
|
| PM--------|     PM---------------------------|   PM---
| |-3-| |-3-|     |-3-|    |---3---| |-3-| |-3-| |-3-|
| E E E E E E  Q  E E E    E    E  E E E E E E E E E E
|-----------------------|------------------------------|
|-----------------------|------------------------------|
|-----------------------|------------------------------|
|-------------10--------|-10---10-10-9-9-9-------9-----|
|-7-7-7-7-7-7-----5-5-5-|------------------6-6-6---6-6-|
|-----------------------|------------------------------|


                PM--------|         PM--|
                      |-3-|         |-3-|
  H             Q     E E E   Q     E E E   H
|---------------------------|--------------------|
|---------------------------|--------------------|
|---------------------------|-------------/14----|
|---------------------------|--------------------|
|-9\------------------------|-9-----------/12----|
|-7\------------3-----5-5-5-|-7-----7-7-7--------|
|
|------------|    PM------|     PM------|
| |-3--| |-3-|  |-3-| |-3-|   |-3-| |-3-|
| E  E E E E E  E E E E E E   E E E E E E   H
|---------------------------|--------------------|
|---------------------------|--------------------|
|---------------------------|--------------------|
|---------------------------|--------------------|
|--------------10-----------|-9-------------2----|
|-7--7-7-7-7-7----7-7-7-7-7-|---7-7-7-7-7---0----|


                                                       PM--|
                                                       |-3-|
   Q.          +E     H          +H              Q     E E E
|------------------------------|-----------------------------|
|------------------------------|-----------------------------|
|-12----------(12)s===9--------|-(9)-------------------------|
|------------------------------|-----------------------------|
|-10----------(10)s===7--------|-(7)-------------------------|
|------------------------------|-----------------3-----5-5-5-|
|
|  PM--------------|     PM--------------------------|   PM|
|  |-3--| |---3----|     |-3-|    |--3---| |-3-| |-3-| |-3-|
|  E  E E E E      E  Q  E E E    E   E  E E E E E E E E E E
|------------------------------|-----------------------------|
|------------------------------|-----------------------------|
|------------------------------|-----------------------------|
|--------------------10--------|-10--10-10-9-9-9-------9-----|
|--7--7-7-7-7------7-----5-5-5-|-----------------6-6-6---6-6-|
|------------------------------|-----------------------------|


  H      H         H      H
|---------------|--------------||
|---------------|--------------||
|-9------7------|--------------||
|---------------|-10------9----||
|-7------5------|--------------||
|---------------|--8------7----||
|
| H      H         H      H
|---------------|--------------||
|---------------|--------------||
|--------4------|--5-----------||
|-5------4------|--5------4----||
|-5------2------|--3------4----||
|-3-------------|---------2----||


    Gtr I
  E    E    E    E    E     E    E    E      E      E     E    E    E    E    E    E
|----------------------------------------|---------10---------------8-------------------|
|---------------------8-----7----5----7--|---8------------8----7---------7---------8----|
|-4----5----4----5-----------------------|----------------------------------------------|
|----------------------------------------|------------------------------------9---------|
|----------------------------------------|----------------------------------------------|
|----------------------------------------|----------------------------------------------|
|
|   Gtr II
|   PM--------------|          PM------------------------------------------|     PM------
|   |--3--|   |--3--|          |--3---|      |----3----|  |--3---|  |--3---|  |--3---|
|   E  E  E   E  E  E    Q     E   E  E      E   E     E  E  E   E  E  E   E  E  E   E
|----------------------------------------|----------------------------------------------|
|----------------------------------------|----------------------------------------------|
|----------------------------------------|----------------------------------------------|
|-----------------------10---------------|--10--10----10--9--9---9------------9---------|
|---7--7--7---7--7--7----------5---5--5--|--------------------------6--6---6-----6---6--|
|----------------------------------------|----------------------------------------------|


    E    E     E    E     E     E     E     E        H                   E    E    E    E
|--12---------10---------------------14----------|--12-----------------/15p==14--------14----|
|--------8----------8-----0----10----------10----|---0---------------------------------------|
|------------------------------------------------|--------------------------------17---------|
|------------------------------------------------|-------------------------------------------|
|------------------------------------------------|-------------------------------------------|
|------------------------------------------------|-------------------------------------------|
|
|---------------------|      PM---------------|         PM----------|
|   |--3---|   |--3---|   |---3---|   |---3---|      |--3--|  |--3--|
|   E  E   E   E  E   E   E  E    E   E  E    E      E  E  E  E  E  E    H
|------------------------------------------------|-------------------------------------------|
|------------------------------------------------|-------------------------------------------|
|------------------------------------------------|-------------------------------------------|
|------------------------------------------------|-------------------------------------------|
|------------------------10----------------------|---9-------------------2-------------------|
|---7--7---7---7--7---7------7----7---7--7----7--|------7--7--7--7--7----0-------------------|


                  ~~
   E      S   S   Q        +Q             E     E      E      E      E     E     E     E     E     E
|--------------------------------------------------|----------------------------15p===14----------------|
|--------------------------------------------------|----------------15----17----------------15----------|
|-17-----16p=14--16-------(16)\--------------------|---------16-----------------------------------14----|
|--------------------------------------------------|--14------------------------------------------------|
|----------------------------------------------17--|----------------------------------------------------|
|---------------------------------------/15--------|----------------------------------------------------|
|
|     PM----------------|             PM-------------------------------------------------|      PM---|
|     |---3---|   |--3--|             |----3----|      |----3----|   |---3---|   |---3---|   |---3---|
|     E   E   E   E  E  E        Q    E     E   E      E   E     E   E  E    E   E  E    E   E  E    E
|--------------------------------------------------|----------------------------------------------------|
|--------------------------------------------------|----------------------------------------------------|
|--------------------------------------------------|----------------------------------------------------|
|-------------------------------10-----------------|--10--10----10---9--9----9---------------9----------|
|-----7---7---7---7--7--7-------------5-----5---5--|-----------------------------6--6----6------6----6--|
|--------------------------------------------------|----------------------------------------------------|


    Q       Q       +Q          E    E       Q       Q       Q         E    E
|----------------------------------------|--------------------------------------|
|----------------------------------------|---------------------------/15h==17---|
|--12s=====11------(11)\-----------------|--------------------------------------|
|-----------------------------/12---12---|--12h=====14------14\-----------------|
|----------------------------------------|--------------------------------------|
|----------------------------------------|--------------------------------------|
|
|   H                H                       H               H
|----------------------------------------|--------------------------------------|
|----------------------------------------|--------------------------------------|
|--------------------4-------------------|---5----------------------------------|
|---5----------------4-------------------|---5---------------4------------------|
|---5----------------2-------------------|---3---------------4------------------|
|---3------------------------------------|-------------------2------------------|


   H.                             E     E        H                    E     E     Q
|-19b20--------------------------14----------|------------------------------------------------|
|--------------------------------------------|--17--------------------------------------------|
|--------------------------------------16----|-----------------------------------17b19r=======|
|--------------------------------------------|-----------------------14h===16-----------------|
|--------------------------------------------|------------------------------------------------|
|--------------------------------------------|------------------------------------------------|
|
|        PM-------------|         PM------------------------------------------|         PM-----
|        |--3--|  |--3--|         |---3---|      |---3---|  |--3--|   |---3---|   |---3----|
|        E  E  E  E  E  E   Q     E  E    E      E   E   E  E  E  E   E  E    E   E     E  E
|--------------------------------------------|------------------------------------------------|
|--------------------------------------------|------------------------------------------------|
|--------------------------------------------|------------------------------------------------|
|--------------------------10----------------|--10--10--10--9--9--9---------------9-----------|
|--------7--7--7--7--7--7---------5--5----5--|------------------------6--6----6---------6--6--|
|--------------------------------------------|------------------------------------------------|


                                         ~~~                                  ~~
         +Q      Q         +Q            Q            +Q          E     E     Q       +Q
|-------------------------------------------------|-------------------------------------------|
|-------------------------------------------------|-------------------------------------------|
|-------(17)p===16--------(16)\--------/14--------|--(14)-------------------------------------|
|-------------------------------------------------|--------------16----------14------(14)\----|
|-------------------------------------------------|--------------------17---------------------|
|-------------------------------------------------|-------------------------------------------|
|
|----------------------|         PM------------|           PM-------------|
|  |----3----|   |--3--|    |---3---|    |--3--|       |--3---|   |---3---|
|  E  E      E   E  E  E    E    E  E    E  E  E       E   E  E   E  E    E   H
|-------------------------------------------------|-------------------------------------------|
|-------------------------------------------------|-------------------------------------------|
|-------------------------------------------------|-------------------------------------------|
|-------------------------------------------------|-------------------------------------------|
|--------------------------10---------------------|----9----------------------2---------------|
|--7--7------7---7--7--7---------7--7----7--7--7--|--------7--7---7--7----7---0---------------|


             |---3---|   |---3---|   |---3---|      |---3---|   |---3---|   |---3---|   |---3---|
  Q          E   E   E   E   E   E   E   E   E      E   E   E   E   E   E   E   E   E   E   E   E
|-----------------------------------------------|--------------14h=17h=19p=17p=14------14----------|
|-----------------------------------------------|--14h=17h=19----------------------19------19p=17--|
|-----------------------------------14h=17h=19--|--------------------------------------------------|
|-----------------------14h=17h=19--------------|--------------------------------------------------|
|-----------14h=17h=19--------------------------|--------------------------------------------------|
|-7/--------------------------------------------|--------------------------------------------------|
|
|     PM----------------|            PM--------------------------------------------|        PM-|
|     |--3---|   |---3---|           |---3---|      |---3---|   |---3---|   |---3---|   |---3---|
|     E  E   E   E   E   E   Q       E   E   E      E   E   E   E   E   E   E   E   E   E   E   E
|-----------------------------------------------|--------------------------------------------------|
|-----------------------------------------------|--------------------------------------------------|
|-----------------------------------------------|--------------------------------------------------|
|---------------------------10------------------|--10--10--10---9---9---9---------------9----------|
|-----7--7---7---7---7---7-----------5---5---5--|---------------------------6---6---6-------6---6--|
|-----------------------------------------------|--------------------------------------------------|


    |---3---|   |---3---|   |---3---|   |---3---|      |---3---|   |---3---|
    E   E   E   E   E   E   E   E   E   E   E   E      E   E   E   E   E   E   S   S   S   S   Q
|--------------------------------------------------|------------------------------------------------||
|--14h=17h=19p=17p=14------------------------------|------------------------------------------------||
|----------------------19p=14h=17h=19p=17p=14--16--|--17p=16p=14------------------------------------||
|--------------------------------------------------|--------------17p=16p=14--16h=17p=16p=14--16----||
|--------------------------------------------------|------------------------------------------------||
|--------------------------------------------------|------------------------------------------------||
|
|                                                                              PM---------|
|   H                       H                          H                       Q           Q
|--------------------------------------------------|------------------------------------------------||
|--------------------------------------------------|------------------------------------------------||
|---------------------------4----------------------|---5--------------------------------------------||
|---5-----------------------4----------------------|---5--------------------------------------------||
|---5-----------------------2----------------------|---3-----------------------3-----------3--------||
|---3----------------------------------------------|---------------------------2-----------2--------||


  Q=125
         PM|     PM|        PM
   +E    S S  E  S S E   E  E   E
|---------------------------------|
|---------------------------------|
|--------------------6------------|
|-(16)\------10---------10-----10-|
|---------------------------9-----|
|--------8-8-----8-8--------------|
|
|        PM------|
|   E    E    E  E   E   E  E   E
|---------------------------------|
|---------------------------------|
|---------------------------------|
|--------------------4---4--4---4-|
|--------3----3--3---3---3--3---3-|
|--------2----2--2---2---2--2---2-|


  PM---|     PM|            PM-------|     PM|         PM
  E  S S  E  S S  E  E   E  E   E  S S  E  S S E    E  E   E
|-----------------------------|------------------------------|
|-----------------------------|------------------------------|
|--------------------6--------|----------------6-------------|
|--------10------10-----10----|--------10----------10-----10-|
|---------------------------9-|------------------------9-----|
|-x--8-8-----8-8--------------|-x--8-8-----8-8---------------|
|
|    PM------|
| E  E    E  E    E  E   E  E   H              Q.          E
|-----------------------------|------------------------------|
|-----------------------------|------------------------------|
|-----------------------------|------------------------------|
|-----------------4--4---4--4-|-5--------------3-----------5-|
|----3----3--3----3--3---3--3-|-3--------------1-----------3-|
|----2----2--2----2--2---2--2-|-3--------------1-----------3-|


   PM----|     PM|            PM
   E   S S  E  S S  E  E   E  E
|-------------------------------|
|-------------------------------|
|----------------------6--------|
|----------10------10-----10----|
|-----------------------------9-|
|--x---8-8-----8-8--------------|
|
|                          PM-|
| +H.                      E  E
|-------------------------------|
|-------------------------------|
|-------------------------------|
|-(5)---------------------------|
|-(3)---------------------------|
|-(3)----------------------0--0-|


     PM--------------|
  E  E  E  E  E   E  E   E    E    E  E   E  E   E    Q
|--------------------------|-------------------------------||
|--------------------------|-------------------------------||
|--------------------------|-------------------------------||
|-----------------------10-|-------------------------10\---||
|----9--9--9--9---9--9---9-|-------9--9---9--9---9----9\---||
|----8--8--8--8---8--8---8-|-------8--8---8--8---8----8\---||
|
| H           Q.         E   +Q       Q.        +Q.
|--------------------------|-------------------------------||
|--------------------------|-------------------------------||
|--------------------------|-------------------------------||
|-5-----------4----------5-|-(5)/-----9---------(9)--------||
|-3-----------2----------3-|-(3)/-----7---------(7)--------||
|-3-----------2----------3-|-(3)------0---------(0)--------||


    Q=123
    Gtr III
      E  E  E Q      E E   E    a    Q    E Q    Q   E
||---------------------------|-------------------------|
||o-----10-------------------|-------------------------|
||---13----13-9--------6---7-|-(7)s==9----7-6----------|
||-------------------7-------|------(9)---9-7----9---7-|
||o--------------------------|------------------11---9-|
||---------------------------|-------------------------|
|
|   Gtr IV
|     H          +Q.       E        +W
||--^-9----------(9)-----^12-|-----(12)----------------|
||o-^-9----------(9)-----^12-|-----(12)----------------|
||--^13---------(13)-----^16-|-----(16)----------------|
||--^-9----------(9)-----^12-|-----(12)----------------|
||o--------------------------|-------------------------|
||---------------------------|-------------------------|
|
|   Gtr V
|     E  E  E E   E  E E   E         E  E E E E  E E E
||------------2------------0-|--------------2----5-4---|
||o---------2----------2-----|------------2----------5-|
||-------4--------2--4-------|----------4--------------|
||----4----------------------|-------0--------2--------|
||o--------------------------|-------------------------|
||---------------------------|-------------------------|


    Q.      Q      E E   E    +Q.     H       +E
|----------^4--------------|------------------------||
|----------^7------7-------|----------7-------(7)--o||
|----------^6--------6-----|------------------------||
|----------^4------------4-|--(4)-------------------||
|---4------^4--------------|-----------------------o||
|--------------------------|------------------------||
|
|   H          +Q.       E    +W
|-^-9----------(9)-----^12-|-(12)-------------------||
|-^-9----------(9)-----^12-|-(12)------------------o||
|-^13---------(13)-----^16-|-(16)-------------------||
|-^-9----------(9)-----^12-|-(12)-------------------||
|--------------------------|-----------------------o||
|--------------------------|------------------------||
|
|   E  E E  E   E  E E   E     E  E E E E E E  E
|-----------2------------0-|----------2---5-4-------||
|--------2-----------2-----|--------2----------5---o||
|------4--------2--4-------|------4-----------------||
|---4----------------------|---0--------2-----------||
|--------------------------|-----------------------o||
|--------------------------|------------------------||


  Q=120
    E  E  E H       +E     +W
|-----------------------|--------------------|
|-----10----------------|--------------------|
|--13----13-9-------(9)-|--(9)---------------|
|-----------------------|--------------------|
|-----------------------|--------------------|
|-----------------------|--------------------|
|
|   W                      +W
|-^-9-------------------|--(9)---------------|
|-^-9-------------------|--(9)---------------|
|-^13-------------------|-(13)---------------|
|-^-9-------------------|--(9)---------------|
|-----------------------|--------------------|
|-----------------------|--------------------|
|
|   E  E  E E E E E  E      E  E E E E E E E
|-----------2--------0--|----------2---5-4---|
|---------2-------2-----|--------2---------5-|
|------4------2-4-------|------4-------------|
|---4-------------------|---0--------2-------|
|-----------------------|--------------------|
|-----------------------|--------------------|


  Q=115
    E  E  E H       +E     +W
|-----------------------|--------------------|
|-----10----------------|--------------------|
|--13----13-9-------(9)-|--(9)---------------|
|-----------------------|--------------------|
|-----------------------|--------------------|
|-----------------------|--------------------|
|
|   W                      +W
|-^-9-------------------|--(9)---------------|
|-^-9-------------------|--(9)---------------|
|-^13-------------------|-(13)---------------|
|-^-9-------------------|--(9)---------------|
|-----------------------|--------------------|
|-----------------------|--------------------|
|
|   E  E  E E E E E  E      E  E E E E E E E
|-----------2--------0--|----------2---5-4---|
|---------2-------2-----|--------2---------5-|
|------4------2-4-------|------4-------------|
|---4-------------------|---0--------2-------|
|-----------------------|--------------------|
|-----------------------|--------------------|


  Q=110                   Q=105
    E  E  E H       +E     +W
|-----------------------|--------------------|
|-----10----------------|--------------------|
|--13----13-9-------(9)-|--(9)---------------|
|-----------------------|--------------------|
|-----------------------|--------------------|
|-----------------------|--------------------|
|
|   W                      +W
|-^-9-------------------|--(9)---------------|
|-^-9-------------------|--(9)---------------|
|-^13-------------------|-(13)---------------|
|-^-9-------------------|--(9)---------------|
|-----------------------|--------------------|
|-----------------------|--------------------|
|
|   E  E  E E E E E  E      E  E E E E E E E
|-----------2--------0--|----------2---5-4---|
|---------2-------2-----|--------2---------5-|
|------4------2-4-------|------4-------------|
|---4-------------------|---0--------2-------|
|-----------------------|--------------------|
|-----------------------|--------------------|


  Q=100             Q=95    Q=85
        W                   W
|-----------------|------------------||
|-----------------|------------------||
|-----------------|------------------||
|-----------------|------------------||
|-----------------|------------------||
|-----------------|------------------||
|
|                                  Gtr VI
|       W           H       Q.     E
|-----------------|------------------||
|-----------------|------------------||
|-----------------|------------------||
|-----------------|----------------6-||
|-----------------|----------------7-||
|-----------------|------------------||
|
| E E E E E E E E   E E E E E  E E E
|-------2-------0-|-------2----5-4---||
|-----2-------2---|-----2----------5-||
|---4-----2-4-----|---4--------------||
|-4---------------|-0-------2------2-||
|-----------------|------------------||
|-----------------|------------------||


  Q=75
  Gtr VI
  +H     H      +H.      Q    +W            H.      Q
|-------------|-------------|------------|-------------|
|-------------|-------------|------------|-10-------9--|
|--------7----|-(7)------6--|-(6)--------|-11-------9--|
|-(6)----9----|-(9)------7--|-(7)--------|-------------|
|-(7)---------|-------------|------------|-------------|
|-------------|-------------|------------|-------------|
|
| Gtr V
| +H     H      +H.      Q    +W            H.      Q
|-------------|-------------|------------|-------------|
|-(5)---------|-------------|------------|-------------|
|-------------|-------------|------------|-------------|
|-(2)---------|----------4--|-(4)--------|--2-------4--|
|--------5----|-(5)---------|------------|-------------|
|-------------|-------------|------------|----------2--|


                 >
  +W            +W
|-------------|--------*|
|-(9)---------|-(9)----*|
|-(9)---------|-(9)----*|
|-------------|--------*|
|-------------|--------*|
|-------------|--------*|
|
|                >
| +H     H      +W
|-------------|--------*|
|-------------|--------*|
|-------------|--------*|
|-(4)---------|--------*|
|-------------|--------*|
|-(2)----2----|-(2)----*|


    Q=123
    Gtr IV
    E E E E E E E E   E E E E E E E E   E E E E E E E E   E E E E E E E E
||--------2-------0-|-------2---5-4---|-------2-------0-|-------2---5-4-----||
||o-----2-------2---|-----2---------5-|-----2-------2---|-----2---------5--o||
||----4-------4-----|---4-------------|---4-------4-----|---4---------------||
||------------------|-0---------------|-----------------|-0-----------------||
||o---------0-------|-----------------|---------0-------|------------------o||
||--2---------------|---------0-------|-2---------------|---------0---------||


Duration Legend
---------------
W - whole; H - half; Q - quarter; E - 8th; S - 16th; T - 32nd; X - 64th; a - acciaccatura
+ - note tied to previous; . - note do





Comments


Popular Cynic tabs & chords
Adam's Murmur Bass Tabs
Evolutionary Sleeper Tabs
How Could I Tabs
I Am But A Wave To Tabs
Integral From Re-traced Tabs
Sentiment Tabs
Textures Tabs
The Unknown Guest Intro Tabs
Uroboric Forms Tabs
Veil Of Maya 2 Tabs


Song lyrics



↑ Back to top | Tablatures and chords are parodies/interpretations of the original songs. You may use it for private study, scholarship, research or language learning purposes only
© 2014 AZChords.com Contact us | Privacy policy | DMCA | Add/correct tabs | Request tabs | Top 50 tabs