>
 >
Integral From Re-traced

Integral From Re-traced Guitar Tabs

Cynic - Integral From Re-traced chords, tabs, tablatures, lyrics

Guitar lessons | Add/correct | Request | Top 50 tabs Artists:  A B C D E F G H I J K L M N O P Q R S T U V W X Y Z 0-9

Integral From Re-traced Guitar Tabs – Cynic

CD, Sheet music, Poster

Do you like Integral From Re-traced? Share with your friends now
Tabs
-------------------------------------------------------------------------------
                             Integral - Cynic
-------------------------------------------------------------------------------

Tuning: Standard

Intro/Chorus
e||-------------------------|-------------------------|--------------------------|
B||-------3---2-------3---2-|-------------0h2---2-----|-------2-----0------------|
G||-------------------------|-------4-----------------|--------------------2-----|
D||---4-----------4---------|---2-------4-----------4-|---4-------4------------4-|
A||-------------------------|-0---0---0-------0---0---|-5---5---5--------5-------|
E||-2---2---2---4---4---4---|-------------------------|--------------------------|

e|-------------------------||
B|-------------------------||
G|-------2-----------4-----||
D|---2-------4-4h6-------6-||
A|-2---2---2---4---4---4---||
E|-------------------------||

Verse
e||-------------------------|-------------------------|-------------------------|
B||-------------------------|-------------------------|---2---2---2---2---2-2-2-|
G||---2---2---2---2---2-2-2-|---1---1---1---1---1-1-1-|-------------------------|
D||-4---4---4---4---4-------|-3---3---3---3---3-------|-2---2---2---2---2-------|
A||-------------------------|-------------------------|-------------------------|
E||-------------------------|-------------------------|-------------------------|

e|-------------------------|-------------------------|-------------------------|
B|---0---2---0---0---2---0-|-------2-----------2-----|-------0-----------0-----|
G|-------------------------|---4-------4---4-------4-|---2-------2---2-------2-|
D|-1---1---1---1---1---1---|-0---0---0---0---0---0---|-------------------------|
A|-------------------------|-------------------------|-4---4---4---4---4---4---|
E|-------------------------|-------------------------|-------------------------|
                            _________________________  _________________________
                           {1st                      \{2nd                      \
e|---------------2---------|------------------------- ||---------------2---------|
B|-------3---2-------3---2-|-------2---0-------2---0- ||-------3---2-------3---2-|
G|---4---------------------|------------------------- ||---4---------------------|
D|-------------------------|---3-----------3--------- ||-------------------------|
A|-2---2---2---2---2---2---|-4---4---4---4---4---4--- ||-2---2---2---2---2---2---|
E|-------------------------|------------------------- ||-------------------------|

Bridge:Dmaj9                Fo7                        A
e|-------------------------|---4---4---5-------------|-------------------------|
B|-------------5-----5-----|-----6---6---------------|---2---2---2---2---2---2-|
G|-------9-----6---------6-|-------------------------|---2---2---2---2---2---2-|
D|---7-------7-7-----------|-3-----------------------|---2---2---2---2---2---2-|
A|-5---5---5---5---5-------|-------------------------|-0---0-------0---0-------|
E|-------------------------|-------------------------|-------------------------|

  C#7#5                      Dmaj7#11
e|-------------------------|---4---4---4---4---4---4-|---5---5---5---5---5---5-|
B|---0---0---0---0---0---0-|---3---3---3---3---3---3-|---5---5---5---5---5---5-|
G|---2---2---2---2---2---2-|---2---2---2---2---2---2-|---4---4---4---4---4---4-|
D|---3---3---3---3---3---3-|-0---0-------0---0-------|-0---0-------0---0-------|
A|-4---4-------4---4-------|-------------------------|-------------------------|
E|-------------------------|-------------------------|-------------------------|

e|---7---7---7---7---7---7-|-9-9-9-9-------9-9-9-9---||
B|---9---9---9---9---9---9-|-9-9-9-9-------9-9-9-9---||
G|---7---7---7---7---7---7-|-7-7-7-7-------9-9-9-9---||
D|-0---0-------0---0-------|-0-0-0-0-------0-0-0-0---||
A|-------------------------|-------------------------||
E|-------------------------|-------------------------||

  F# (weep no more....)                               Bm
e|-------------------------|-------------------------|-------2-----------2-----|
B|-------7-----------7-----|-------7-----------7-----|-----------3-----------3-|
G|-----------6-----------6-|-----------6-------------|---4-----------4---------|
D|---8-----------8---------|---8-----------8-------6-|-------------------------|
A|-9---9---9---9---9---9---|-9---9---9---9---9---9---|-2---2---2---2---2---2---|
E|-------------------------|-------------------------|-------------------------|

                            Gmaj7
e|-------2-----------2-----|-------2-----------2-----|-------2-----------2-----|
B|-----------3-----------3-|-----------3-----------3-|-----------3-----------3-|
G|---4-----------4---------|---4-----------4---------|---4-----------4---------|
D|-------------------------|-------------------------|-------------------------|
A|-2---2---2---2---2---2---|-------------------------|-------------------------|
E|-------------------------|-3---3---3---3---3---3---|-3---3---3---3---3---3---|

  G#m7b5
e|-------2-----------2-----|-------2-----------2-----||
B|-----------3-----------3-|-----------3-----------3-||
G|---4-----------4---------|---4-----------4---------||
D|-------------------------|-------------------------||
A|-------------------------|-------------------------||
E|-4---4---4---4---4---4---|-4---4---4---4---4---4---||

I'm in love with this song, both the original and this interpreted version.  I just had 
post it.  It's much easier if you play fingerstyle - this will be really tough if you're 
it with a pick.

For the "Weep no more" section, I'm making a best guess as to the actual picking.  I 
just hold the chord shapes and play the same 12/8 feel.
Feedback is welcome, there are a few ways to play the intro, I just like this shape the most.





Comments


Popular Cynic tabs & chords
Adam's Murmur Bass Tabs
Celestial Voyage Tabs
Evolutionary Sleeper Tabs
I Am But A Wave To Tabs
Sentiment Tabs
Textures Tabs
The Eagle Nature Tabs
The Unknown Guest Intro Tabs
Veil Of Maya Tabs
Veil Of Maya 2 Tabs


Song lyrics



↑ Back to top | Tablatures and chords are parodies/interpretations of the original songs. You may use it for private study, scholarship, research or language learning purposes only
© 2014 AZChords.com Contact us | Privacy policy | DMCA | Add/correct tabs | Request tabs | Top 50 tabs