>
 >
I Am But A Wave To

I Am But A Wave To Guitar Tabs

Cynic - I Am But A Wave To chords, tabs, tablatures, lyrics

Guitar lessons | Add/correct | Request | Top 50 tabs Artists:  A B C D E F G H I J K L M N O P Q R S T U V W X Y Z 0-9

I Am But A Wave To Guitar Tabs – Cynic

CD, Sheet music, Poster

Do you like I Am But A Wave To? Share with your friends now
Tabs
Look for a more detailed and constant updated version with powertab at 

                              I'M BUT A WAVE TO...
                              As recorded by Cynic
                           (From the 1993 Album FOCUS)

Words by Paul Masvidal Music by Cynic

Gtr I (E A D G B E) - 'Paul (distortion)'
Gtr II (E A D G B E) - 'Jason (distortion)'
Gtr III (E A D G B E) - 'Paul (clean)'
Gtr IV (E A D G B E) - 'Jason (clean)'
Gtr V (E A D G B E) - 'Paul (lead)'
Gtr VI (E A D G B E) - 'Jason (lead)'

  Q=220
 4/4
  Gtr III
    \1.5_____/
    Q       +Q.     +Q.           +W                      W
|-^-7-------(7)-----(7)--|--------(7)----------|-------------------|
|-^-7-------(7)-----(7)--|--------(7)----------|-------------------|
|-^10------(10)----(10)--|-------(10)----------|-------------------|
|-^-9-------(9)-----(9)--|--------(9)----------|-------------------|
|------------------------|---------------------|-------------------|
|------------------------|---------------------|-------------------|
|
| Gtr IV
|               W          Q   E   E  E E  E E   E  E  E  Q   E Q
|------------------------|------------7--------|---------13--------|
|------------------------|--------------7------|------13-----------|
|------------------------|----10----------10---|---10--------10----|
|------------------------|-9-------9---------9-|-9--------------9--|
|------------------------|---------------------|-------------------|
|------------------------|---------------------|-------------------|


            W                        W
|----------------------|------------------------|
|----------------------|------------------------|
|----------------------|------------------------|
|----------------------|------------------------|
|----------------------|------------------------|
|----------------------|------------------------|
|
| +E   E E  E E E E  E   E  E  E  E  E  E  E  E
|---------------7------|---------13----13-------|
|-------------7---7----|------13----13----------|
|-----10---10-------10-|---10-------------10s13-|
|-(9)----9-------------|-9----------------------|
|----------------------|------------------------|
|----------------------|------------------------|


              W                           W
|---------------------------|--------------------------|
|---------------------------|--------------------------|
|---------------------------|--------------------------|
|---------------------------|--------------------------|
|---------------------------|--------------------------|
|---------------------------|--------------------------|
|
|  +E   E  E  E  E  E  E  E    E  E   Q.     +E   E  E
|---------------16-------17-|-------^16-----(16)-------|
|------------------15-------|-15----^15-----(15)-------|
|-(13)-13-------------13----|----13-^13-----(13)-13----|
|---------12-12-------------|-----------------------12-|
|---------------------------|--------------------------|
|---------------------------|--------------------------|


                 W                       W
|---------------------------|-----------------------|
|---------------------------|-----------------------|
|---------------------------|-----------------------|
|---------------------------|-----------------------|
|---------------------------|-----------------------|
|---------------------------|-----------------------|
|
|  +E   E  E  E  E  E  E  E    E  E  E E E E  E  E
|------------------14-------|------------8----------|
|---------------10----10----|----------8---8--------|
|------13----13----------13s|=11----11-------11-----|
|-(12)----12----------------|----10-------------10\-|
|---------------------------|-----------------------|
|---------------------------|-----------------------|


    /1___________________________________________
    W                     +W
|----------------------|------------------------|
|-^15------------------|-(15)-------------------|
|-^13------------------|-(13)-------------------|
|-^12------------------|-(12)-------------------|
|----------------------|------------------------|
|----------------------|------------------------|
|
|   Q     E E E E  E E     E   E  E  E  E  E Q
|-------------7--------|------------13----------|
|---------------7------|---------13----13-------|
|--------10-------10---|------10----------10----|
|---9-------9--------9-|---9-----------------9--|
|----------------------|------------------------|
|----------------------|------------------------|


              W                      W
|----------------------|------------------------|
|----------------------|------------------------|
|----------------------|------------------------|
|----------------------|------------------------|
|----------------------|------------------------|
|----------------------|------------------------|
|
| +E   E E  E E E E  E   E  E  E  E  E  E  E  E
|---------------7------|---------13----13-------|
|-------------7---7----|------13----13----------|
|-----10---10-------10-|---10-------------10s13-|
|-(9)----9-------------|-9----------------------|
|----------------------|------------------------|
|----------------------|------------------------|


              W                           W
|---------------------------|--------------------------|
|---------------------------|--------------------------|
|---------------------------|--------------------------|
|---------------------------|--------------------------|
|---------------------------|--------------------------|
|---------------------------|--------------------------|
|
|  +E   E  E  E  E  E  E  E    E  E   Q.     +E   E  E
|---------------16-------17-|-------^16-----(16)-------|
|------------------15-------|-15----^15-----(15)-------|
|-(13)-13-------------13----|----13-^13-----(13)-13----|
|---------12-12-------------|-----------------------12-|
|---------------------------|--------------------------|
|---------------------------|--------------------------|


                 W                       W
|---------------------------|-----------------------||
|---------------------------|-----------------------||
|---------------------------|-----------------------||
|---------------------------|-----------------------||
|---------------------------|-----------------------||
|---------------------------|-----------------------||
|
|  +E   E  E  E  E  E  E  E    E  E  E E E E  E  E
|------------------14-------|------------8----------||
|---------------10----10----|----------8---8--------||
|------13----13----------13s|=11----11-------11-----||
|-(12)----12----------------|----10-------------10\-||
|---------------------------|-----------------------||
|---------------------------|-----------------------||


  Gtr I
   ~~
   W                   +Q      Q.      Q.
|-------------------|------------------------|
|-------------------|------------------------|
|-------------------|---------16-------------|
|-15----------------|-(15)------------15-----|
|-14----------------|-(14)-------------------|
|-------------------|------------------------|
|
| Gtr IV
|  Q   E E E E  E E     E   E  E   Q   E  Q
|----------7--------|-------------13---------|
|------------7------|---------13-------------|
|-----10-------10---|------10---------10-----|
|--9-----9--------9-|---9-----------------9--|
|-------------------|------------------------|
|-------------------|------------------------|


                              \1
   Q      Q     Q    Q        H.                 E  E
|-------------------------|---------------------------|
|-------------------------|---------------------------|
|-16-----------16---------|-(16)-----------------x--x-|
|--------15---------15----|-(15)-----------------x--x-|
|-------------------------|----------------------x--x-|
|-------------------------|---------------------------|
|
| +E   E  E  E  E E  E  E     E   E  E  E  E  E  E  E
|-----------------7-------|------------13----13-------|
|---------------7----7----|---------13----13----------|
|-----10----10---------10-|------10-------------10s13-|
|-(9)-----9---------------|---9-----------------------|
|-------------------------|---------------------------|
|-------------------------|---------------------------|


    ~~~~
    W                          +Q       Q.     Q.
|---------------------------|---------------------------|
|---------------------------|---------------------------|
|---------------------------|----------22---------------|
|--21-----------------------|-(21)------------21--------|
|--20-----------------------|-(20)----------------------|
|---------------------------|---------------------------|
|
|  +E   E  E  E  E  E  E  E     E   E   Q.    +E   E  E
|---------------16-------17-|---------^16----(16)-------|
|------------------15-------|--15-----^15----(15)-------|
|-(13)-13-------------13----|------13-^13----(13)-13----|
|---------12-12-------------|------------------------12-|
|---------------------------|---------------------------|
|---------------------------|---------------------------|


                                \1
    Q      Q     Q     Q        H.              E  E
|---------------------------|-------------------------|
|---------------------------|-------------------------|
|--22-----------22----------|-(22)--------------x--x--|
|---------21----------21----|-(21)--------------x--x--|
|---------------------------|-------------------x--x--|
|---------------------------|-------------------------|
|
|  +E   E  E  E  E  E  E  E     E   E  E E E E  E  E
|------------------14-------|--------------8----------|
|---------------10----10----|------------8---8--------|
|------13----13----------13s|==11-----11-------11-----|
|-(12)----12----------------|------10-------------10\-|
|---------------------------|-------------------------|
|---------------------------|-------------------------|


   ~~
   W                   +Q      Q.        Q.
|-------------------|--------------------------|
|-------------------|---------21---------------|
|-19----------------|-(19)--------------19-----|
|-18----------------|-(18)---------------------|
|-------------------|--------------------------|
|-------------------|--------------------------|
|
|  Q   E E E E  E E     E   E  E   E  E  E  Q
|----------7--------|-------------13-----------|
|------------7------|---------13-----13--------|
|-----10-------10---|------10-----------10-----|
|--9-----9--------9-|---9-------------------9--|
|-------------------|--------------------------|
|-------------------|--------------------------|


                     ~~
   Q      Q     Q    Q        Q      Q     Q     E  E
|-------------------22----|-(22)----------------------|
|-21-----------21---------|-(21)----21----18----------|
|--------19---------------|---------------------19----|
|-------------------------|------------------------18-|
|-------------------------|---------------------------|
|-------------------------|---------------------------|
|
| +E   E  E  E  E E  E  E     E   E  E  E  E  E  E  E
|-----------------7-------|------------13----13-------|
|---------------7----7----|---------13----13----------|
|-----10----10---------10-|------10-------------10s13-|
|-(9)-----9---------------|---9-----------------------|
|-------------------------|---------------------------|
|-------------------------|---------------------------|


                                \2
    ~~~~
    W                          +W
|---------------------------|---------------------------|
|---------------------------|---------------------------|
|--19-----------------------|-(19)----------------------|
|--18-----------------------|-(18)----------------------|
|---------------------------|---------------------------|
|---------------------------|---------------------------|
|
|  +E   E  E  E  E  E  E  E     E   E   Q.    +E   E  E
|---------------16-------17-|---------^16----(16)-------|
|------------------15-------|--15-----^15----(15)-------|
|-(13)-13-------------13----|------13-^13----(13)-13----|
|---------12-12-------------|------------------------12-|
|---------------------------|---------------------------|
|---------------------------|---------------------------|


   +W                          +W
|---------------------------|-------------------------||
|---------------------------|-------------------------||
|-(19)----------------------|-(19)--------------------||
|-(18)----------------------|-(18)--------------------||
|---------------------------|-------------------------||
|---------------------------|-------------------------||
|
|  +E   E  E  E  E  E  E  E     E   E  E E E E  E  E
|------------------14-------|--------------8----------||
|---------------10----10----|------------8---8--------||
|------13----13----------13s|==11-----11-------11-----||
|-(12)----12----------------|------10-------------10\-||
|---------------------------|-------------------------||
|---------------------------|-------------------------||


  Gtr I
   W                     +W
|---------------------|------------------------|
|---------------------|------------------------|
|-10------------------|-(10)-------------------|
|---------------------|------------------------|
|--8------------------|--(8)-------------------|
|---------------------|------------------------|
|
| Gtr IV
|  E  E E E E E  E  E    +E   E  E E E E  E  E
|-----------7---------|--------------8---------|
|-------7-----7-------|------------8---8-------|
|----10---------10----|---------10-------10----|
|--9------9--------10-|-(10)-10-------------10-|
|---------------------|------------------------|
|---------------------|------------------------|


    E   E  E E  E  E  E E   +W
|-------------------------|-------------------|
|-------------------------|-------------------|
|--10s==9s10s9s10s=9s10s7-|-(7)---------------|
|-------------------------|-------------------|
|---8s==7s=8s7s=8s=7s=8s5-|-(5)---------------|
|-------------------------|-------------------|
|
|  +E   E  E E  E  E  E E    E  E E E E E E E
|---------------7---------|-------------7-----|
|------------8----------8-|-----------7---7---|
|---------10---------10---|--7----7-9-------9-|
|-(10)-10---------10------|-----9-------------|
|-------------------------|-------------------|
|-------------------------|-------------------|


   H.             E  E    +W
|----------------------|------------------------|
|----------------------|------------------------|
|-10----------------10-|-(10)-------------------|
|----------------------|------------------------|
|--8--------------8--8-|--(8)-------------------|
|----------------------|------------------------|
|
|  E   E E E E E  E  E    +E   E  E E E E  E  E
|------------7---------|--------------8---------|
|--------7-----7-------|------------8---8-------|
|-----10---------10----|---------10-------10----|
|--9-------9--------10-|-(10)-10-------------10-|
|----------------------|------------------------|
|----------------------|------------------------|


    H           Q     E E   +W
|-------------------------|-------------------||
|-------------------------|-------------------||
|--10----------10-------7-|-(7)---------------||
|-------------------------|-------------------||
|---8-----------8-----8-5-|-(5)---------------||
|-------------------------|-------------------||
|
|  +E   E  E E  E  E  E E    E  E E E E E E E
|---------------7---------|-------------7-----||
|------------8----------8-|-----------7---7---||
|---------10---------10---|--7----7-9-------9-||
|-(10)-10---------10------|-----9-------------||
|-------------------------|-------------------||
|-------------------------|-------------------||


 9/4
  Gtr I
                  
   W.                     +H.              W.                       +H.
|---------------------------------------|----------------------------------|
|---------------------------------------|-12-----------------------(12)----|
|---------------------------------------|----------------------------------|
|-14---------------------(14)-----------|----------------------------------|
|---------------------------------------|----------------------------------|
|---------------------------------------|----------------------------------|
|
| Gtr IV
|  H     Q  E  Q  E  E E   E  E  E Q.      Q   Q  E  Q  E  E E E E   H.
|-----------------7-----------7---------|----------------------------------|
|-------------11----11----11----11------|-----------12----12--------12-----|
|-----------9----------9-----------9----|---------9----------9---9---------|
|--------9------------------------------|------9--------9------9-----------|
|--7------------------------------------|-10-------------------------------|
|---------------------------------------|----------------------------------|


                 
   W.                   +H.             W.                   +H.
|------------------------------------|------------------------------------|
|------------------------------------|-15-------------------(15)----------|
|------------------------------------|------------------------------------|
|-16-------------------(16)----------|------------------------------------|
|------------------------------------|------------------------------------|
|------------------------------------|------------------------------------|
|
|  H     Q  E Q  E E E   E  E E Q.      H     Q  E Q  E E E   E  H    +E
|----------------3----------3--------|----------------3----------7----(7)-|
|-------------7----7-----7----7------|-------------5----5-----7-----------|
|-----------5--------5----------5----|-----------5--------5---------------|
|--------5---------------------------|--------5---------------------------|
|--3---------------------------------|--3---------------------------------|
|------------------------------------|------------------------------------|


                  
   W.                     +H.              W.                       +H.
|-15---------------------(15)-----------|-14-----------------------(14)----|
|---------------------------------------|----------------------------------|
|---------------------------------------|----------------------------------|
|---------------------------------------|----------------------------------|
|---------------------------------------|----------------------------------|
|---------------------------------------|----------------------------------|
|
|  H     Q  E  Q  E  E E   E  E  E Q.      Q   Q  E  Q  E  E E E E   H.
|-----------------7-----------7---------|----------------------------------|
|-------------11----11----11----11------|-----------12----12--------12-----|
|-----------9----------9-----------9----|---------9----------9---9---------|
|--------9------------------------------|------9--------9------9-----------|
|--7------------------------------------|-10-------------------------------|
|---------------------------------------|----------------------------------|


                 
   W.                   +H.             W.                   +H.
|-17-------------------(17)----------|------------------------------------||
|------------------------------------|-17-------------------(17)----------||
|------------------------------------|------------------------------------||
|------------------------------------|------------------------------------||
|------------------------------------|------------------------------------||
|------------------------------------|------------------------------------||
|
|  H     Q  E Q  E E E   E  E E Q.      H     Q  E Q  E E E   E  H    +E
|----------------3----------3--------|----------------3----------7----(7)-||
|-------------7----7-----7----7------|-------------5----5-----7-----------||
|-----------5--------5----------5----|-----------5--------5---------------||
|--------5---------------------------|--------5---------------------------||
|--3---------------------------------|--3---------------------------------||
|------------------------------------|------------------------------------||


  Q=250
 4/4
  Gtr I
      PM----------|      PM|     PM  PM|
   E  E E  E  E E E E    E  E E  E E E E E
|---------------------|--------------------|
|---------------------|--------------------|
|---------------------|-------4----4-------|
|--9---------10-9-7-9-|-----5----5---5---7-|
|-----7-7--7----------|--6-------------7---|
|---------------------|--------------------|
|
| Gtr II
|  E  E H.               E  E H.
|---------------------|--------------------|
|---------------------|--------------------|
|-12s11-9-------------|-12s11-9------------|
|---------------------|--------------------|
|-10s=9-7-------------|-10s=9-7------------|
|---------------------|--------------------|


      PM------------|       PM------|
    E E E E  E E  E E    E  E  E  E  E  E  Q
|---------------------|---------------------------|
|---------------------|---------------------------|
|---------------------|--4------------------------|
|-------5----7-5--4-5-|-----5--4--5--7--5---------|
|-----4---4-----------|--------------------4/-----|
|---------------------|---------------------------|
|
|   H        Q    Q      E  E  E  E  E  E  E   E
|---------------------|---------------------------|
|---------------------|---------------------------|
|-/14-------12---12---|-12s11-11-11-11-11-11--11--|
|---------------------|---------------------------|
|-/12-------10---10---|-10s=9--9--9--9--9--9---9--|
|---------------------|---------------------------|


      PM----------|      PM|     PM  PM|
   E  E E  E  E E E E    E  E E  E E E E E
|---------------------|--------------------|
|---------------------|--------------------|
|---------------------|-------4----4-------|
|--9---------10-9-7-9-|-----5----5---5---7-|
|-----7-7--7----------|--6-------------7---|
|---------------------|--------------------|
|
|  E  E H.               E  E H.
|---------------------|--------------------|
|---------------------|--------------------|
|-12s11-9-------------|-12s11-9------------|
|---------------------|--------------------|
|-10s=9-7-------------|-10s=9-7------------|
|---------------------|--------------------|


      PM---------|         PM--------|
    E E E E  E E  E E    E E  E E  E  E  E  E
|---------------------|-----------------------|
|---------------------|-----------------------|
|-------------------4-|------------------5----|
|-------5----7-5--4---|----7--5-------------7-|
|-----4---4-----------|---------6--6--6-------|
|---------------------|-----------------------|
|
|   H        Q    Q      Q    Q    E  E  E  E
|---------------------|-----------------------|
|---------------------|-----------------------|
|-/16-------14---14---|-14---12---12-12-12-12-|
|---------------------|-----------------------|
|-/14-------12---12---|-12---10---10-10-10-10-|
|---------------------|-----------------------|


      PM----------|      PM|     PM  PM|
   E  E E  E  E E E E    E  E E  E E E E E
|---------------------|--------------------|
|---------------------|--------------------|
|---------------------|-------4----4-------|
|--9---------10-9-7-9-|-----5----5---5---7-|
|-----7-7--7----------|--6-------------7---|
|---------------------|--------------------|
|
|  E  E H.               E  E H.
|---------------------|--------------------|
|---------------------|--------------------|
|-12s11-9-------------|-12s11-9------------|
|---------------------|--------------------|
|-10s=9-7-------------|-10s=9-7------------|
|---------------------|--------------------|


      PM------------|      PM-----|
    E E E E  E E  E E    E E  E E  E  E  Q
|---------------------|------------------------|
|---------------------|------------------------|
|---------------------|--4---------------------|
|-------5----7-5--4-5-|----5--4-5--7--4--------|
|-----4---4-----------|------------------3/----|
|---------------------|------------------------|
|
|   H        Q    Q      Q    Q    E  E  E   E
|---------------------|------------------------|
|---------------------|------------------------|
|-/14-------12---12---|-12---11---11-11-11--11-|
|---------------------|------------------------|
|-/12-------10---10---|-10----9----9--9--9---9-|
|---------------------|------------------------|


      PM----------|      PM|     PM  PM|
   E  E E  E  E E E E    E  E E  E E E E E
|---------------------|--------------------|
|---------------------|--------------------|
|---------------------|-------4----4-------|
|--9---------10-9-7-9-|-----5----5---5---7-|
|-----7-7--7----------|--6-------------7---|
|---------------------|--------------------|
|
|  E  E H.               E  E H.
|---------------------|--------------------|
|---------------------|--------------------|
|-12s11-9-------------|-12s11-9------------|
|---------------------|--------------------|
|-10s=9-7-------------|-10s=9-7------------|
|---------------------|--------------------|


      PM---------|         PM---------|
    E E E E  E E  E E    E E  E E  E  E  E E
|---------------------|----------------------||
|---------------------|----------------------||
|-------------------4-|------------------5---||
|-------5----7-5------|----7--5------------7-||
|-----4---4-------4---|---------6--6--6------||
|---------------------|----------------------||
|
|                                        PM|
|   H        Q    Q      Q    Q    Q     E E
|---------------------|----------------------||
|---------------------|----------------------||
|-/16-------14---14---|-14---12---12\--------||
|-----------13---13---|-13-------------------||
|-/14-----------------|------10---10\---10-9-||
|---------------------|----------------------||


  Gtrs I, II
  PM----------------------------------------------------------------|
  E E E E E E E E   E E E E E E E E   E E E E E E E E   E E E E E E E E
|-----------------|-----------------|-----------------|------------------|
|-----------------|-----------------|-----------------|------------------|
|-----4-5-4-------|-----4---4-------|---------2-4-2---|-2----------------|
|---4-------4---4-|---4---4---4---5-|---2---2-------2-|---2---2----------|
|-7-----------7---|-5-----------5---|-4---4-----------|-----4---3-3-3-5/-|
|-----------------|-----------------|-----------------|------------------|


  Gtr I
   PM------|         PM------|
   E  E E  E H       E  E E  E  Q   Q
|-----------------|--------------------|
|-----------------|--------------------|
|------------4----|------------12s=11--|
|------------0----|--0--0-0--0---------|
|------------5----|------------10s==9--|
|--0--0-0--0------|--------------------|
|
| Gtr II
|  E  E H.           E  E H.
|-----------------|--------------------|
|-----------------|--------------------|
|-12s11-9---------|-12s11-9------------|
|-----------------|--------------------|
|-10s=9-7---------|-10s=9-7------------|
|-----------------|--------------------|


    PM----------------------------------|
    E E E E  E E  E E    E  E  E  E  E  E Q
|---------------------|----------------------|
|---------------------|----------------------|
|------------2-4--2---|--2----------------2--|
|-----2---2---------2-|-----2-----2--1--1-1--|
|---4---4-------------|--------4-------------|
|---------------------|----------------------|
|
|   H        Q    Q      E  E  E  E  H
|---------------------|----------------------|
|---------------------|----------------------|
|-/14-------12---12---|-12s11-11-11-11\------|
|---------------------|----------------------|
|-/12-------10---10---|-10s=9--9--9--9\------|
|---------------------|----------------------|


  Gtrs I, II
  PM----------------------------------------------------------------|
  E E E E E E E E   E E E E E E E E   E E E E E E E E   E E E E E E E E
|-----------------|-----------------|-----------------|------------------|
|-----------------|-----------------|-----------------|------------------|
|-----4-5-4-------|-----4---4-------|---------2-4-2---|-2----------------|
|---4-------4---4-|---4---4---4---5-|---2---2-------2-|---2---2----------|
|-7-----------7---|-5-----------5---|-4---4-----------|-----4---3-3-3-5/-|
|-----------------|-----------------|-----------------|------------------|


  Gtr I
   PM------|         PM------|
   E  E E  E H       E  E E  E  Q   Q
|-----------------|--------------------|
|-----------------|--------------------|
|------------4----|------------11s=12--|
|------------0----|--0--0-0--0---------|
|------------5----|-------------9s=10--|
|--0--0-0--0------|--------------------|
|
| Gtr II
|  E  E H.           E  E H.
|-----------------|--------------------|
|-----------------|--------------------|
|-12s11-9---------|-12s11-9------------|
|-----------------|--------------------|
|-10s=9-7---------|-10s=9-7------------|
|-----------------|--------------------|


    PM----------------------------------|
    E E E E  E E  E E    E  E  E  E  E  E Q     W      W
|---------------------|----------------------|------|-----||
|---------------------|----------------------|------|-----||
|------------2-4--2---|--2----------------2--|------|-----||
|-----2---2---------2-|-----2-----2--1--1-1--|------|-----||
|---4---4-------------|--------4-------------|------|-----||
|---------------------|----------------------|------|-----||
|
|   H        Q    Q      E  E  E  E  H          W      W
|---------------------|----------------------|------|-----||
|---------------------|----------------------|------|-----||
|-/16-------14---14---|-14s12-12-12-12\------|------|-----||
|---------------------|----------------------|------|-----||
|-/14-------12---12---|-12s10-10-10-10\------|------|-----||
|---------------------|----------------------|------|-----||


  Gtr I
  PM------------------------------------------------------------------|
  E E E E E E E E   E E E E E E E E   E E E E E E E E   E E E E E E E E
|-----------------|-----------------|-----------------|-----------------|
|-----------------|-----------------|-----------------|-----------------|
|---------3-----3-|-------5---------|-1-----1-------3-|-------1-------5-|
|-7-7-7-7---7-7---|-5-5-5---5-5-5-5-|---5-5---3-3-3---|-5-5-5---5-5-5---|
|-----------------|-----------------|-----------------|-----------------|
|-----------------|-----------------|-----------------|-----------------|
|
| Gtr II
| PM------------------------------------------------------------------|
| E E E E E E E E   E E E E E E E E   E E E E E E E E   E E E E E E E E
|-----------------|-----------------|-----------------|-----------------|
|-----------------|-----------------|-----------------|-----------------|
|-----------------|-----------------|-----------------|-----------------|
|---------5-----5-|-------7---------|-3-----3-------5-|-------3-------7-|
|-9-9-9-9---9-9---|-7-7-7---7-7-7-7-|---7-7---5-5-5---|-7-7-7---7-7-7---|
|-----------------|-----------------|-----------------|-----------------|


  PM------------------------------|                   PM--------|
  E E E E E E E E   E E E E E E E E   Q.   +E  H      E E E E E E Q
|-----------------|-----------------|---------------|----------------|
|-----------------|-----------------|---------------|----------------|
|---------3-----3-|-------5---------|-5----(5)s9----|-------------6--|
|-7-7-7-7---7-7---|-5-5-5---5-5-5-5-|---------------|-5-6-----5-5-5--|
|-----------------|-----------------|-3----(3)s7----|-----8-8--------|
|-----------------|-----------------|---------------|----------------|
|
| PM------------------------------|                   PM--------|
| E E E E E E E E   E E E E E E E E   Q.   +E  H      E E E E E E Q
|-----------------|-----------------|---------------|----------------|
|-----------------|-----------------|---------------|----------------|
|-----------------|-----------------|-9----(9)s5----|----------------|
|---------5-----5-|-------7---------|---------------|---6---------8--|
|-9-9-9-9---9-9---|-7-7-7---7-7-7-5-|-7----(7)s3----|-7---5-8-7-5-7--|
|-----------------|-----------------|---------------|----------------|


  PM------------------------------------------------------------------|
  E E E E E E E E   E E E E E E E E   E E E E E E E E   E E E E E E E E
|-----------------|-----------------|-----------------|-----------------|
|-----------------|-----------------|-----------------|-----------------|
|---------3-----3-|-------5---------|-1-----1-------3-|-------1-------5-|
|-7-7-7-7---7-7---|-5-5-5---5-5-5-5-|---5-5---3-3-3---|-5-5-5---5-5-5---|
|-----------------|-----------------|-----------------|-----------------|
|-----------------|-----------------|-----------------|-----------------|
|
| PM------------------------------------------------------------------|
| E E E E E E E E   E E E E E E E E   E E E E E E E E   E E E E E E E E
|-----------------|-----------------|-----------------|-----------------|
|-----------------|-----------------|-----------------|-----------------|
|-----------------|-----------------|-----------------|-----------------|
|---------5-----5-|-------7---------|-3-----3-------5-|-------3-------7-|
|-9-9-9-9---9-9---|-7-7-7---7-7-7-7-|---7-7---5-5-5---|-7-7-7---7-7-7---|
|-----------------|-----------------|-----------------|-----------------|


  PM------------------------------|                   PM--------|
  E E E E E E E E   E E E E E E E E   Q.   +E  H      E E E E E E Q
|-----------------|-----------------|---------------|----------------||
|-----------------|-----------------|---------------|----------------||
|---------3-----3-|-------5---------|-5----(5)s9----|-------------6--||
|-7-7-7-7---7-7---|-5-5-5---5-5-5-5-|---------------|-5-6---5-5-5-5--||
|-----------------|-----------------|-3----(3)s7----|-----8----------||
|-----------------|-----------------|---------------|----------------||
|
| PM------------------------------|                   PM--------|
| E E E E E E E E   E E E E E E E E   Q.   +E  H      E E E E E E Q
|-----------------|-----------------|---------------|----------------||
|-----------------|-----------------|---------------|----------------||
|-----------------|-----------------|-9----(9)s5----|----------------||
|---------5-----5-|-------7---------|---------------|---6---------8--||
|-9-9-9-9---9-9---|-7-7-7---7-7-7-5-|-7----(7)s3----|-7---5-8-7-5-7--||
|-----------------|-----------------|---------------|----------------||


  Gtr I
          PM----|                      PM--|   PM----|
  H       E E E E   E E     H.         E E E E E E E E   Q.     Q.     Q
|-----------------|------------------|-----------------|-------------------|
|-----------------|------------------|-----------------|-------------------|
|-4---------------|------------------|-----------------|-3-------------5---|
|-4---------------|-5-4--------------|-----------------|-3------3------5---|
|-2---------------|-5-4--------------|-------1---------|-1------3------3---|
|---------1-2-3-4-|-3-2--------------|-1-2-3---1-2-3-4-|--------1----------|
|
| Gtr II
| PM---------------------------------------------------------------------|
| E E E E E E E E   E E E E E  E E E   E E E E E E E E   E  E E E  E E E E
|-----------------|------------------|-----------------|-------------------|
|-----------------|------------------|-----------------|-------------------|
|-----------------|------------------|-----------------|-------------------|
|---------5-----5-|-------7----------|-3-----3---------|--------3--------7-|
|-9-9-9-9---9-9---|-7-7-7---7--7-7-7-|---7-7---5-5-5-5-|-7--7-7----7-7-7---|
|-----------------|------------------|-----------------|-------------------|


          PM----|                                       PM--------|
  Q   Q   E E E E   E E H.             Q.   +E   H      E E E E E E Q
|-----------------|------------------|----------------|----------------|
|-----------------|------------------|----------------|----------------|
|-----------------|------------------|-5----(5)s12----|-------------6--|
|-5---------------|-5-4--------------|----------------|-5-6-----5-5-5--|
|-5---------------|-5-4--------------|-3----(3)s10----|-----8-8--------|
|-3-------1-2-3-4-|-3-2--------------|----------------|----------------|
|
| PM-------------------------------|                    PM--------|
| E E E E E E E E   E E E  E E E E E   Q.   +E   H      E E E E E E Q
|-----------------|------------------|----------------|----------------|
|-----------------|------------------|----------------|----------------|
|-----------------|------------------|-9----(9)s=5----|----------------|
|---------5-----5-|--------7---------|----------------|---6---------8--|
|-9-9-9-9---9-9---|-7-7-7----7-7-7-5-|-7----(7)s=3----|-7---5-8-7-5-7--|
|-----------------|------------------|----------------|----------------|


          PM----|                      PM--|   PM----|
  H       E E E E   E E H.             E E E E E E E E   Q.     Q.     Q
|-----------------|------------------|-----------------|-------------------|
|-----------------|------------------|-----------------|-------------------|
|-4---------------|------------------|-----------------|-3-------------5---|
|-4---------------|-5-4--------------|-----------------|-3------3------5---|
|-2---------------|-5-4--------------|-------1---------|-1------3------3---|
|---------1-2-3-4-|-3-2--------------|-1-2-3---1-2-3-4-|--------1----------|
|
| PM---------------------------------------------------------------------|
| E E E E E E E E   E E E  E E E E E   E E E E E E E E   E  E E E  E E E E
|-----------------|------------------|-----------------|-------------------|
|-----------------|------------------|-----------------|-------------------|
|-----------------|------------------|-----------------|-------------------|
|---------5-----5-|--------7---------|-3-----3-------5-|--------3--------7-|
|-9-9-9-9---9-9---|-7-7-7----7-7-7-7-|---7-7---5-5-5---|-7--7-7----7-7-7---|
|-----------------|------------------|-----------------|-------------------|


          PM----|
  Q   Q   E E E E   E E H.             Q.   +E   H      H       H
|-----------------|------------------|----------------|-----------------||
|-----------------|------------------|----------------|-----------------||
|-----------------|------------------|-5----(5)s12----|-----------------||
|-5---------------|-5-4--------------|----------------|-7-------9\------||
|-5---------------|-5-4--------------|-3----(3)s10----|-----------------||
|-3-------1-2-3-4-|-3-2--------------|----------------|-----------------||
|
| PM-------------------------------|                    PM---------|
| E E E E E E E E   E E E  E E E E E   Q.   +E   H      E E E E E  E Q
|-----------------|------------------|----------------|-----------------||
|-----------------|------------------|----------------|-----------------||
|-----------------|------------------|-9----(9)s=5----|-----------------||
|---------5-----5-|--------7---------|----------------|---6----------8--||
|-9-9-9-9---9-9---|-7-7-7----7-7-7-5-|-7----(7)s=3----|-7---5-8-7--5-7--||
|-----------------|------------------|----------------|-----------------||


  Gtr VI
   W              +Q   Q.    Q.      Q  Q   Q  Q     Q  Q  +E   Q.
|---------------|------------------|--------------|-----7--(7)s10-------|
|-/7------------|-(7)--------------|-----------7s=|==8------------------|
|---------------|------6-----------|--------6-----|---------------------|
|---------------|------------5s====|=4s=5---------|---------------------|
|---------------|------------------|--------------|---------------------|
|---------------|------------------|--------------|---------------------|
|
| Gtr I
|  PM----|                 PM----|                   PM-|
|  E E E E H       H       E E E E   H      H        Q  Q   Q       Q
|---------------|------------------|-------^5-----|---------9-----------|
|---------------|------------------|-------^5-----|----------------10\--|
|----------6----|--5---------------|-5-----^5-----|-----9---------------|
|----------x----|--x---------------|-x------------|---------------------|
|--9-9-9-9-9----|--8-------8-8-8-8-|-8------------|-12------------------|
|---------------|------------------|--------------|---------------------|


                       |--3--|  |--3--|        |--3--|
   Q    Q    Q   Q     E  E  E  E  E  E  S E.  E  E  E
|-------------------|-------12h13p12h13p12-------------|
|-11h==12-----------|----14-------------------------12-|
|-----------11h=12--|-17-------------------------13----|
|-------------------|-------------------------16-------|
|-------------------|----------------------------------|
|-------------------|----------------------------------|
|
|  PM-----|                                PM-------|
|  E E  E E  H         H                   E   E  E  E
|-------------------|----------------------------------|
|-------------------|----------------------------------|
|------------6------|--5-------------------------------|
|------------x------|--x-------------------------------|
|--9-9--9-9--9------|--8-------------------8---8--8--8-|
|-------------------|----------------------------------|


      |--3--|  |--3--|        |--3--|
   E  E  E  E  E  E  E  E E   S  S  S     Q   Q   Q   Q
|-12h16p13p12h13p12h13p12-------------|--14p=13--12-------|
|----------------------------------12-|--------------14---|
|-------------------------------13----|-------------------|
|----------------------------12-------|-------------------|
|-------------------------------------|-------------------|
|-------------------------------------|-------------------|
|
|  H                 H                    W
|-------------------^5----------------|-^-9---------------|
|-------------------^5----------------|-^-9---------------|
|--5----------------^5----------------|-^-9---------------|
|--x----------------------------------|-^-x---------------|
|--8----------------------------------|-^12---------------|
|-------------------------------------|-------------------|


 3/4
    H.          H.          H.             H.
|-----------|--24\------|--------------|--19\----|
|--24/------|-----------|--17/---------|---------|
|-----------|-----------|--------------|---------|
|-----------|-----------|--------------|---------|
|-----------|-----------|--------------|---------|
|-----------|-----------|--------------|---------|
|
|   H.         +H.         +H       Q     +H.
|-^-0-------|--(0)------|--(0)---------|---------|
|-^-0-------|--(0)------|--(0)----^-8--|--(8)----|
|-^-9-------|--(9)------|--(9)----^-0--|--(0)----|
|-^11-------|-(11)------|-(11)----^-x--|---------|
|-^12-------|-(12)------|-(12)----^10--|-(10)----|
|-----------|-----------|--------------|---------|


             2/4
    H.          H         H         H         H         H
|-----------|--15\----|--15\----|--15\----|--15\----|--15\----|
|--12/------|---------|---------|---------|---------|---------|
|-----------|---------|---------|---------|---------|---------|
|-----------|---------|---------|---------|---------|---------|
|-----------|---------|---------|---------|---------|---------|
|-----------|---------|---------|---------|---------|---------|
|
|  +H.         +H        +H        +H        +H        +H
|-----------|---------|---------|---------|---------|---------|
|--(8)------|--(8)----|--(8)----|--(8)----|--(8)----|--(8)----|
|--(0)------|--(0)----|--(0)----|--(0)----|--(0)----|--(0)----|
|-----------|---------|---------|---------|---------|---------|
|-(10)------|-(10)----|-(10)----|-(10)----|-(10)----|-(10)----|
|-----------|---------|---------|---------|---------|---------|


 4/4
   H       Q   Q     +Q   H      Q      H     Q   Q     +Q    Q  E +E   E  E
|-----------------|------------------|---------------|------------------------|
|-/7-------8s=10--|-(10)-------------|--------9s=10--|-(10)------9-(9)s10s=9--|
|-----------------|-------7----------|---------------|-------11---------------|
|-----------------|--------------9s==|=11------------|------------------------|
|-----------------|------------------|---------------|------------------------|
|-----------------|------------------|---------------|------------------------|
|
|  PM----|                   PM----|                     PM--|
|  E E E E H          H      E E E E    H     H          Q    Q  Q      Q
|-----------------|------------------|-------^5------|-----------9------------|
|-----------------|------------------|-------^5------|-----------------10\----|
|----------6------|---5--------------|--5----^5------|--------9---------------|
|----------x------|---x--------------|--x------------|------------------------|
|--9-9-9-9-9------|---8------8-8-8-8-|--8------------|--12--------------------|
|-----------------|------------------|---------------|------------------------|


   Q    E  E  E  E  S  S  E    S  S  S  E.   S  S  E  E  E  E
|------------12h16-16p12----|-14p12---------------12h16p12----|
|-12---15h16-------------16-|-------16-12---15h16----------16-|
|---------------------------|---------------------------------|
|---------------------------|---------------------------------|
|---------------------------|---------------------------------|
|---------------------------|---------------------------------|
|
|  PM-----|                                        PM------|
|  E E  E  E  H                H                   E  E  E  E
|---------------------------|---------------------------------|
|---------------------------|---------------------------------|
|-------------6-------------|--5------------------------------|
|-------------x-------------|--x------------------------------|
|--9-9--9--9--9-------------|--8-------------------8--8--8--8-|
|---------------------------|---------------------------------|


   S  S  S  S  Q     +E   Q.      +Q      E. E.  E. E.
|-12p11h12p11------------------|-----------------------|
|-------------11----(11)s12----|-(12)-----------16h17--|
|------------------------------|---------13h14---------|
|------------------------------|-----------------------|
|------------------------------|-----------------------|
|------------------------------|-----------------------|
|
|  H              H                W
|----------------^5------------|-^-9-------------------|
|----------------^5------------|-^-9-------------------|
|--5-------------^5------------|-^-9-------------------|
|--x---------------------------|-^-x-------------------|
|--8---------------------------|-^12-------------------|
|------------------------------|-----------------------|


 3/4
    E. E.  Q.        H.          H.             H.
|--16h17--24-----|--12p------|--------------|---------|
|----------------|-----------|--20----------|--15p----|
|----------------|-----------|--------------|---------|
|----------------|-----------|--------------|---------|
|----------------|-----------|--------------|---------|
|----------------|-----------|--------------|---------|
|
|   H.              +H.         +H       Q     +H.
|-^-0------------|--(0)------|--(0)---------|---------|
|-^-0------------|--(0)------|--(0)----^-8--|--(8)----|
|-^-9------------|--(9)------|--(9)----^-0--|--(0)----|
|-^11------------|-(11)------|-(11)----^-x--|---------|
|-^12------------|-(12)------|-(12)----^10--|-(10)----|
|----------------|-----------|--------------|---------|


 2/4
    H         Q    Q      Q    Q      Q    Q      Q    Q      Q    Q
|---------|-----------|-----------|-----------|-----------|-----------||
|--18-----|--13sp-12--|--17p==12--|--18p==12--|--20p==12--|--18p==17--||
|---------|-----------|-----------|-----------|-----------|-----------||
|---------|-----------|-----------|-----------|-----------|-----------||
|---------|-----------|-----------|-----------|-----------|-----------||
|---------|-----------|-----------|-----------|-----------|-----------||
|
|  +H        +H          +H          +H          +H          +H
|---------|-----------|-----------|-----------|-----------|-----------||
|--(8)----|--(8)------|--(8)------|--(8)------|--(8)------|--(8)------||
|--(0)----|--(0)------|--(0)------|--(0)------|--(0)------|--(0)------||
|---------|-----------|-----------|-----------|-----------|-----------||
|-(10)----|-(10)------|-(10)------|-(10)------|-(10)------|-(10)------||
|---------|-----------|-----------|-----------|-----------|-----------||


  Q=220
 9/4
  Gtr VI
   W.                     +H.              +W.                       +H.
|---------------------------------------|-----------------------------------|
|-24---------------------(24)-----------|-(24)----------------------(24)----|
|---------------------------------------|-----------------------------------|
|---------------------------------------|-----------------------------------|
|---------------------------------------|-----------------------------------|
|---------------------------------------|-----------------------------------|
|
| Gtr I
|                  
|  W.                     +H.               W.                       +H.
|---------------------------------------|-----------------------------------|
|---------------------------------------|--12-----------------------(12)----|
|---------------------------------------|-----------------------------------|
|-14---------------------(14)-----------|-----------------------------------|
|---------------------------------------|-----------------------------------|
|---------------------------------------|-----------------------------------|
|
| Gtr IV
|  H     Q  E  Q  E  E E   E  E  E Q.       Q   Q  E  Q  E  E E E E   H.
|-----------------7-----------7---------|-----------------------------------|
|-------------11----11----11----11------|------------12----12--------12-----|
|-----------9----------9-----------9----|----------9----------9---9---------|
|--------9------------------------------|-------9--------9------9-----------|
|--7------------------------------------|--10-------------------------------|
|---------------------------------------|-----------------------------------|


  Gtr I
                 
   W.                   +H.             W.                   +H.
|------------------------------------|------------------------------------|
|------------------------------------|-15-------------------(15)----------|
|------------------------------------|------------------------------------|
|-16-------------------(16)----------|------------------------------------|
|------------------------------------|------------------------------------|
|------------------------------------|------------------------------------|
|
| Gtr IV
|  H     Q  E Q  E E E   E  E E Q.      H     Q  E Q  E E E   E  H    +E
|----------------3----------3--------|----------------3----------7----(7)-|
|-------------7----7-----7----7------|-------------5----5-----7-----------|
|-----------5--------5----------5----|-----------5--------5---------------|
|--------5---------------------------|--------5---------------------------|
|--3---------------------------------|--3---------------------------------|
|------------------------------------|------------------------------------|


                  
   W.                     +H.              W.                       +H.
|-15---------------------(15)-----------|-14-----------------------(14)----|
|---------------------------------------|----------------------------------|
|---------------------------------------|----------------------------------|
|---------------------------------------|----------------------------------|
|---------------------------------------|----------------------------------|
|---------------------------------------|----------------------------------|
|
|  H     Q  E  Q  E  E E   E  E  E Q.      Q   Q  E  Q  E  E E E E   H.
|-----------------7-----------7---------|----------------------------------|
|-------------11----11----11----11------|-----------12----12--------12-----|
|-----------9----------9-----------9----|---------9----------9---9---------|
|--------9------------------------------|------9--------9------9-----------|
|--7------------------------------------|-10-------------------------------|
|---------------------------------------|----------------------------------|


                 
   W.                   +H.             W.                   +H.
|-17-------------------(17)----------|------------------------------------||
|------------------------------------|-17-------------------(17)----------||
|------------------------------------|------------------------------------||
|------------------------------------|------------------------------------||
|------------------------------------|------------------------------------||
|------------------------------------|------------------------------------||
|
|  H     Q  E Q  E E E   E  E E Q.      H     Q  E Q  E E E   E  H    +E
|----------------3----------3--------|----------------3----------7----(7)-||
|-------------7----7-----7----7------|-------------5----5-----7-----------||
|-----------5--------5----------5----|-----------5--------5---------------||
|--------5---------------------------|--------5---------------------------||
|--3---------------------------------|--3---------------------------------||
|------------------------------------|------------------------------------||


  Q=250
 4/4
  Gtr I
      PM----------|      PM|     PM  PM|
   E  E E  E  E E E E    E  E E  E E E E E
|---------------------|--------------------|
|---------------------|--------------------|
|---------------------|-------4----4-------|
|--9---------10-9-7-9-|-----5----5---5---7-|
|-----7-7--7----------|--6-------------7---|
|---------------------|--------------------|
|
| Gtr II
|  E  E H.               E  E H.
|---------------------|--------------------|
|---------------------|--------------------|
|-12s11-9-------------|-12s11-9------------|
|---------------------|--------------------|
|-10s=9-7-------------|-10s=9-7------------|
|---------------------|--------------------|


      PM------------|       PM------|
    E E E E  E E  E E    E  E  E  E  E  E  Q
|---------------------|---------------------------|
|---------------------|---------------------------|
|---------------------|--4------------------------|
|-------5----7-5--4-5-|-----5--4--5--7--5---------|
|-----4---4-----------|--------------------4/-----|
|---------------------|---------------------------|
|
|   H        Q    Q      E  E  E  E  E  E  E   E
|---------------------|---------------------------|
|---------------------|---------------------------|
|-/14-------12---12---|-12s11-11-11-11-11-11--11--|
|---------------------|---------------------------|
|-/12-------10---10---|-10s=9--9--9--9--9--9---9--|
|---------------------|---------------------------|


      PM----------|      PM|     PM  PM|
   E  E E  E  E E E E    E  E E  E E E E E
|---------------------|--------------------|
|---------------------|--------------------|
|---------------------|-------4----4-------|
|--9---------10-9-7-9-|-----5----5---5---7-|
|-----7-7--7----------|--6-------------7---|
|---------------------|--------------------|
|
|  E  E H.               E  E H.
|---------------------|--------------------|
|---------------------|--------------------|
|-12s11-9-------------|-12s11-9------------|
|---------------------|--------------------|
|-10s=9-7-------------|-10s=9-7------------|
|---------------------|--------------------|


      PM---------|         PM--------|
    E E E E  E E  E E    E E  E E  E  E  E  E
|---------------------|-----------------------|
|---------------------|-----------------------|
|-------------------4-|------------------5----|
|-------5----7-5------|----7--5-------------7-|
|-----4---4-------4---|---------6--6--6-------|
|---------------------|-----------------------|
|
|   H        Q    Q      Q    Q    E  E  E  E
|---------------------|-----------------------|
|---------------------|-----------------------|
|-/16-------14---14---|-14---12---12-12-12-12-|
|---------------------|-----------------------|
|-/14-------12---12---|-12---10---10-10-10-10-|
|---------------------|-----------------------|


      PM----------|      PM|     PM  PM|
   E  E E  E  E E E E    E  E E  E E E E E
|---------------------|--------------------|
|---------------------|--------------------|
|---------------------|-------4----4-------|
|--9---------10-9-7-9-|-----5----5---5---7-|
|-----7-7--7----------|--6-------------7---|
|---------------------|--------------------|
|
|  E  E H.               E  E H.
|---------------------|--------------------|
|---------------------|--------------------|
|-12s11-9-------------|-12s11-9------------|
|---------------------|--------------------|
|-10s=9-7-------------|-10s=9-7------------|
|---------------------|--------------------|


      PM------------|      PM-----|
    E E E E  E E  E E    E E  E E  E  E  Q
|---------------------|------------------------|
|---------------------|------------------------|
|---------------------|--4---------------------|
|-------5----7-5--4-5-|----5--4-5--7--4--------|
|-----4---4-----------|------------------3/----|
|---------------------|------------------------|
|
|   H        Q    Q      Q    Q    E  E  E   E
|---------------------|------------------------|
|---------------------|------------------------|
|-/14-------12---12---|-12---11---11-11-11--11-|
|---------------------|------------------------|
|-/12-------10---10---|-10----9----9--9--9---9-|
|---------------------|------------------------|


      PM----------|      PM|     PM  PM|
   E  E E  E  E E E E    E  E E  E E E E E
|---------------------|--------------------|
|---------------------|--------------------|
|---------------------|-------4----4-------|
|--9---------10-9-7-9-|-----5----5---5---7-|
|-----7-7--7----------|--6-------------7---|
|---------------------|--------------------|
|
|  E  E H.               E  E H.
|---------------------|--------------------|
|---------------------|--------------------|
|-12s11-9-------------|-12s11-9------------|
|---------------------|--------------------|
|-10s=9-7-------------|-10s=9-7------------|
|---------------------|--------------------|


      PM---------|         PM---------|
    E E E E  E E  E E    E E  E E  E  E  E E
|---------------------|----------------------||
|---------------------|----------------------||
|-------------------4-|------------------5---||
|-------5----7-5--4---|----7--5------------7-||
|-----4---4-----------|---------6--6--6------||
|---------------------|----------------------||
|
|                                        PM|
|   H        Q    Q      Q    Q    Q     E E
|---------------------|----------------------||
|---------------------|----------------------||
|-/16-------14---14---|-14---12---12\--------||
|-----------13---13---|-13-------------------||
|-/14-----------------|------10---10\---10-9-||
|---------------------|----------------------||


  Gtrs I, II
  PM----------------------------------------------------------------|
  E E E E E E E E   E E E E E E E E   E E E E E E E E   E E E E E E E E
|-----------------|-----------------|-----------------|------------------|
|-----------------|-----------------|-----------------|------------------|
|-----4-5-4-------|-----4---4-------|---------2-4-2---|-2----------------|
|---4-------4---4-|---4---4---4---5-|---2---2-------2-|---2---2----------|
|-7-----------7---|-5-----------5---|-4---4-----------|-----4---3-3-3-5/-|
|-----------------|-----------------|-----------------|------------------|


  Gtr I
   PM------|         PM------|
   E  E E  E H       E  E E  E  Q   Q
|-----------------|--------------------|
|-----------------|--------------------|
|------------4----|------------12s=11--|
|------------0----|--0--0-0--0---------|
|------------5----|------------10s==9--|
|--0--0-0--0------|--------------------|
|
| Gtr II
|  E  E H.           E  E H.
|-----------------|--------------------|
|-----------------|--------------------|
|-12s11-9---------|-12s11-9------------|
|-----------------|--------------------|
|-10s=9-7---------|-10s=9-7------------|
|-----------------|--------------------|


    PM----------------------------------|
    E E E E  E E  E E    E  E  E  E  E  E Q
|---------------------|----------------------|
|---------------------|----------------------|
|------------2-4--2---|--2----------------2--|
|-----2---2---------2-|-----2-----2--1--1-1--|
|---4---4-------------|--------4-------------|
|---------------------|----------------------|
|
|   H        Q    Q      E  E  E  E  H
|---------------------|----------------------|
|---------------------|----------------------|
|-/14-------12---12---|-12s11-11-11-11\------|
|---------------------|----------------------|
|-/12-------10---10---|-10s=9--9--9--9\------|
|---------------------|----------------------|


  Gtrs I, II
  PM----------------------------------------------------------------|
  E E E E E E E E   E E E E E E E E   E E E E E E E E   E E E E E E E E
|-----------------|-----------------|-----------------|------------------|
|-----------------|-----------------|-----------------|------------------|
|-----4-5-4-------|-----4---4-------|---------2-4-2---|-2----------------|
|---4-------4---4-|---4---4---4---5-|---2---2-------2-|---2---2----------|
|-7-----------7---|-5-----------5---|-4---4-----------|-----4---3-3-3-5/-|
|-----------------|-----------------|-----------------|------------------|


  Gtr I
   PM------|         PM------|
   E  E E  E H       E  E E  E  Q   Q
|-----------------|--------------------|
|-----------------|--------------------|
|------------4----|------------11





Comments


Popular Cynic tabs & chords
Adam's Murmur Bass Tabs
Celestial Voyage Tabs
Evolutionary Sleeper Tabs
Integral From Re-traced Tabs
Textures Tabs
The Eagle Nature Tabs
The Unknown Guest Intro Tabs
Uroboric Forms Tabs
Veil Of Maya Tabs
Veil Of Maya 2 Tabs


Song lyrics



↑ Back to top | Tablatures and chords are parodies/interpretations of the original songs. You may use it for private study, scholarship, research or language learning purposes only
© 2014 AZChords.com Contact us | Privacy policy | DMCA | Add/correct tabs | Request tabs | Top 50 tabs