>
 >
Adam's Murmur

Adam's Murmur Bass Tabs

Cynic - Adam's Murmur chords, tabs, tablatures, lyrics

Guitar lessons | Add/correct | Request | Top 50 tabs Artists:  A B C D E F G H I J K L M N O P Q R S T U V W X Y Z 0-9

Adam's Murmur Bass Tabs – Cynic

CD, Sheet music, Poster

Do you like Adam's Murmur? Share with your friends now
Bass Tabs
Song : Adam's Murmur
Artist : Cynic
Album : Traced in air


G||---------------8--8-----8-------|---------------8--8-----8-------|
D||--------------------------------|--------------------------------|
A||--------------------------------|--------------------------------|
E||--------------------------------|--------------------------------|
B||--------------------------------|--------------------------------|


---------------9--9-----8-------|---------------9--9-----8-------|
--------------------------------|--------------------------------|
--------------------------------|--------------------------------|
--------------------------------|--------------------------------|
--------------------------------|--------------------------------|


---------------8--8-----8-------|---------------8--8-----8-------|
--------------------------------|--------------------------------|
--------------------------------|--------------------------------|
--------------------------------|--------------------------------|
--------------------------------|--------------------------------|


--------------------------------|---------------4--3-----1-------|
---------------9--8-----6-------|--------------------------------|
--------------------------------|--------------------------------|
--------------------------------|--------------------------------|
--------------------------------|--------------------------------|


-----------------------------|------------------------------|
-----------------------------|------------------------------|
----------------6------------|-----------------6------------|
-----------------------------|------------------------------|
--4------4-------------------|--4----4--4-------------------|


------------------------|-----------------------------|
------------------------|-----------------------------|
------------------------|----------------6------------|
-------2h-4------2------|-----------------------------|
------------------------|--4------4-------------------|


------------------------------|---------------------------------|
------------------------------|---------------------------------|
-----------------6------------|-----------------1------2--------|
------------------------------|-------2h-4----------------------|
--4----4--4-------------------|---------------------------------|


-----------------------------|------------------------------|
-----------------------------|------------------------------|
----------------6------------|-----------------6------------|
-----------------------------|------------------------------|
--4------4-------------------|--4----4--4-------------------|


------------------------|-----------------------------|
------------------------|-----------------------------|
------------------------|----------------6------------|
-------2h-4------2------|-----------------------------|
------------------------|--4------4-------------------|


------------------------------|--------------------------------------|
------------------------------|--------------------------------------|
-----------------6------------|-----------------1------2-------------|
------------------------------|-------2h-4--------------------4------|
--4----4--4-------------------|--------------------------------------|


-------------------|----------------------------|-------------------|
-------------------|----------------------------|-------------------|
--4----------------|--2-------------------------|-------------------|
-------------------|----------------------------|--0----------------|
-------------------|----------------------------|-------------------|


---------------------------------|-------------------|
---------------------------------|--4----------------|
--2--------0--2--2--2------------|-------------------|
---------------------------------|-------------------|
---------------------------------|-------------------|


------------------------3----|--4------4--4----4------------|
-----------------------------|------------------------------|
--1--------------------------|------------------------------|
-----------------------------|------------------------------|
-----------------------------|------------------------------|


--4--------4----4------------|-----------------------------|------------------|
-----------------------------|--2---------------------2----|--1---------------|
-----------------------------|-----------------------------|------------------|
-----------------------------|-----------------------------|------------------|
-----------------------------|-----------------------------|------------------|


-------------------|------------------------|
-------------------|------------------------|
-------------------|--4---------------------|
--4----------------|------------------------|
-------------------|------------------------|


------------------------------------|------------------------------------|
-----------2------------------------|------------------------------------|
------------------------------------|------------------------------------|
--0--0--0---------0--0--0--4--0--2--|--0--4--0--0------0--0--0--4--0--2--|
------------------------------------|------------------------------------|


-------------------|------------------------3----|
--4----------------|-----------------------------|
-------------------|--1--------------------------|
-------------------|-----------------------------|
-------------------|-----------------------------|


--4------4--4----4------------|--4--------4----4------------|
------------------------------|-----------------------------|
------------------------------|-----------------------------|
------------------------------|-----------------------------|
------------------------------|-----------------------------|


-----------------------------|-------------------|-------------------|
--2---------------------2----|--1----------------|-------------------|
-----------------------------|-------------------|-------------------|
-----------------------------|-------------------|--4----------------|
-----------------------------|-------------------|-------------------|


------------------------|------------------------------------|
------------------------|-----------2------------------------|
--4---------------------|------------------------------------|
------------------------|--0--0--0---------0--0--0--4--0--2--|
------------------------|------------------------------------|


------------------------------------|----------------------------|
------------------------------------|----------------------------|
------------------------------------|----------------------------|
--0--4--0--0------0--0--0--4--0--2--|--2------------2------------|
------------------------------------|----------------------------|


----------------0--------------|------------------------------------|
---------------------2---------|-------------------1h-2------1------|
--------------------------4----|------------------------------------|
--2------4---------------------|--4--4--4--4------------------------|
-------------------------------|------------------------------------|


--------------------------------------|--------------------------------------|
--------------------------------------|--------------------------------------|
--2--2--2--2--2--2--2--2--2--2--2--2--|--4--4--4--4--4--4--2--2--2--2--2--2--|
--------------------------------------|--------------------------------------|
--------------------------------------|--------------------------------------|


------------------------------------|------------------------------|
-------------------1h-2------1------|------------1-----------------|
------------------------------------|-------4---------4------------|
--4--4--4--4------------------------|--4---------------------------|
------------------------------------|------------------------------|


--------------------------------|------------------------------------|
------------1-------------------|-------------------1h-2------1------|
-------4---------4----2----1----|------------------------------------|
--4-----------------------------|--4--4--4--4------------------------|
--------------------------------|------------------------------------|


------------------------------------|-------------------------------------|
------------------------------------|-------------------------------------|
--2--2-2-2---------2--2-2-2---------|--4--4-4-4---------------------------|
------------4----------------4------|------------4---------0-----0--------|
------------------------------------|-------------------2-----0-----0--4--|


--------------------------------|--------------------------------|
--------------------------------|--------------------------------|
--------------------------------|--------------------------------|
--------------------------------|--------------------------------|
---------------4--4-----4-------|---------------4--4-----4-------|


--------------------------------|--------------------------------|
--------------------------------|--------------------------------|
--------------------------------|--------------------------------|
---------------4--4-----4-------|---------------4--4-----4-------|
--------------------------------|--------------------------------|


--------------------------------|--------------------------------|
--------------------------------|--------------------------------|
--------------------------------|--------------------------------|
--------------------------------|--------------------------------|
---------------4--4-----4-------|---------------4--4-----4-------|


-------------------------------|------------------------------|
-------------------------------|------------------------------|
-------------------------------|------------------------------|
---------------4--4-----4------|--4--------4--4--4------------|
-------------------------------|------------------------------|


-------------------|-------------------|-------------------|
-------------------|-------------------|-------------------|
-------------------|--1----------------|--2----------------|
--2----------------|-------------------|-------------------|
-------------------|-------------------|-------------------|


-----------------------------|-------------------|
----------------------1------|--2----------------|
---------------4-------------|-------------------|
-----------------------------|-------------------|
-----------------------------|-------------------|


------------------------------|------------------------------|
--2------------1--------------|------------------------------|
------------------------------|--6---------------------------|
------------------------------|-----------4------------------|
---------------------------4--|---------------------------4--|


----------------------------|------------------------------------|
----------------------------|------------------------------------|
----------------------------|------------------------------------|
--4-------------------------|--0----0--0--0--0--0----0--0--0--0--|
----------------------------|------------------------------------|


------------------------------------|------------------------------------|
------------------------------------|------------------------------------|
------------------------------------|------------------------------------|
------------------------------------|--4----4--4--4--4--4----4--4--4--4--|
--4----4--4--4--4--4----4--4--4--4--|------------------------------------|


------------------------------------|------------------------------------|
------------------------------------|------------------------------------|
------------------------------------|------------------------------------|
------------------------------------|--0----0--0--0--0--0----0--0--0--0--|
--2----2--2--2--2--2----2--2--2--2--|------------------------------------|


------------------------------------|-----------------3--------------|
------------------------------------|-------1--------------1---------|
------------------------------------|--------------------------------|
------------------------------------|--4---------4--------------4----|
--4----4--4--4--4--4----4--4--4--4--|--------------------------------|


--4----1----------------------|---------------|---------------|
------------2-----------------|---------------|---------------|
-----------------4------------|---------------|---------------|
------------------------------|---------------|---------------|
------------------------------|---------------|---------------|


-------------------|-------------------|------------------------------------|
-------------------|-------------------|-------------------1h-2------1------|
-------------------|-------------------|------------------------------------|
--2----------------|--3----------------|--4--4--4--4------------------------|
-------------------|-------------------|------------------------------------|


--------------------------------------|--------------------------------------|
--------------------------------------|--------------------------------------|
--2--2--2--2--2--2--2--2--2--2--2--2--|--4--4--4--4--4--4--2--2--2--2--2--2--|
--------------------------------------|--------------------------------------|
--------------------------------------|--------------------------------------|


------------------------------------|------------------------------|
-------------------1h-2------1------|------------1-----------------|
------------------------------------|-------4---------4------------|
--4--4--4--4------------------------|--4---------------------------|
------------------------------------|------------------------------|


--------------------------------|------------------------------------|
------------1-------------------|-------------------1h-2------1------|
-------4---------4----2----1----|------------------------------------|
--4-----------------------------|--4--4--4--4------------------------|
--------------------------------|------------------------------------|


------------------------------------|-------------------------------------|
------------------------------------|-------------------------------------|
--2--2-2-2---------2--2-2-2---------|--4--4-4-4---------------------------|
------------4----------------4------|------------4---------0-----0--------|
------------------------------------|-------------------2-----0-----0--4--|


--------------------------------|--------------------------------|
--------------------------------|--------------------------------|
--------------------------------|--------------------------------|
--------------------------------|--------------------------------|
---------------4--4-----4-------|---------------4--4-----4-------|


--------------------------------|--------------------------------|
--------------------------------|--------------------------------|
--------------------------------|--------------------------------|
---------------4--4-----4-------|---------------4--4-----4-------|
--------------------------------|--------------------------------|

--------------------------------|--------------------------------|
--------------------------------|--------------------------------|
--------------------------------|--------------------------------|
--------------------------------|--------------------------------|
---------------4--4-----4-------|---------------4--4-----4-------|


-------------------------------|---------------------------------|
-------------------------------|---------------1--0-----0--------|
-------------------------------|---------------------4-----4--2--|
---------------4--4-----4------|---------------------------------|
-------------------------------|---------------------------------|


-----------------------------|------------------------------|
-----------------------------|------------------------------|
----------------6------------|-----------------6------------|
-----------------------------|------------------------------|
--4------4-------------------|--4----4--4-------------------|


------------------------|-----------------------------|
------------------------|-----------------------------|
------------------------|----------------6------------|
-------2h-4------2------|-----------------------------|
------------------------|--4------4-------------------|


------------------------------|---------------------------------|
------------------------------|---------------------------------|
-----------------6------------|-----------------1------2--------|
------------------------------|-------2h-4----------------------|
--4----4--4-------------------|---------------------------------|


-----------------------------|------------------------------|
-----------------------------|------------------------------|
----------------6------------|-----------------6------------|
-----------------------------|------------------------------|
--4------4-------------------|--4----4--4-------------------|


------------------------|-----------------------------|
------------------------|-----------------------------|
------------------------|----------------6------------|
-------2h-4------2------|-----------------------------|
------------------------|--4------4-------------------|


------------------------------|--------------------------------------|
------------------------------|--------------------------------------|
-----------------6------------|-----------------1------2-------------|
------------------------------|-------2h-4--------------------4------|
--4----4--4-------------------|--------------------------------------|


-------------------|----------------------------|
-------------------|----------------------------|
--4----------------|--2-------------------------|
-------------------|----------------------------|
-------------------|----------------------------|


--------------------------------||
--------------------------------||
--6--6--6--6--------------------||
--------------------------------||
--------------------------------||





Comments


Popular Cynic tabs & chords
Celestial Voyage Tabs
Evolutionary Sleeper Tabs
How Could I Tabs
I Am But A Wave To Tabs
Textures Tabs
The Eagle Nature Tabs
The Unknown Guest Intro Tabs
Uroboric Forms Tabs
Veil Of Maya Tabs
Veil Of Maya 2 Tabs


Song lyrics



↑ Back to top | Tablatures and chords are parodies/interpretations of the original songs. You may use it for private study, scholarship, research or language learning purposes only
© 2014 AZChords.com Contact us | Privacy policy | DMCA | Add/correct tabs | Request tabs | Top 50 tabs