» » »

Twilight Tabs (ver.1)

Artists:  A B C D E F G H I J K L M N O P Q R S T U V W X Y Z # 

Twilight Tabs (ver.1)

Cut Copy
Rating:
5/5 (1 vote)

Tabs too difficult? Try these video lessons and learn fast.
                Album : Bright Like Neon Love
Song  : The Twilight
Tab   : Silentcrisis/Keneticshark24


Sparse power chords(?) with "scratching" can be heard throughout the song.


Guitar "solo" heard at 03:02~


Method 1

E  :-----------------|-----------------|
B  :-----------------|-----------------|
G  :-----------------|-----------------|
D  :-----------------|-----------------|
A  :-----------------|-----------------|
E  :-4-4-4-4-4-4-4-4/|7~7-7-7-0-0-2-2--|

Method 2

E  :-----------------|-----------------|
B  :-----------------|-----------------|
G  :-----------------|-----------------|
D  :-6-6-6-6-6-6-6-6/|9~9-9-9-2-2-4-4--|
A  :-6-6-6-6-6-6-6-6/|9~9-9-9-2-2-4-4--|
E  :-4-4-4-4-4-4-4-4/|7~7-7-7-0-0-2-2--|

*Plenty of distortion and reverb


You can play that "solo" part using either Method 1 or 2 - it's up to the player to 
whichever sounds more correct or not. The Power chords are
optional. The slide from 4/7 is very important; make sure you clearly slide and let ring 
heard in the song.

I realise that this could be wrong - this is why I'm putting this tab up in
hopes of user feedback. There are no Cut Copy tabs at the moment, so I hope there will 
more contributions.

Please do leave comments and such.
            
Tabs too difficult? Try these video lessons and learn fast.




comments powered by Disqus
↑ Back to top | Tablatures and chords are parodies/interpretations of the original songs. You may use it for private study, scholarship, research or language learning purposes only