» » »

Cut Copy, So Haunted Bass tabs (ver.1)

Artists:  A B C D E F G H I J K L M N O P Q R S T U V W X Y Z # 

So Haunted Bass tabs (ver.1)

Cut Copy Tabs
 Rating:
4/5 (4 votes)
So Haunted lessons Tabs too difficult? Try these video lessons and learn fast
                
Intro2x/Verse4x:
G-----------------------------------|
D-----------------------------------|
A-----------------------------------|
E-4444444444444444/88888888/99999999

2x
G------------------------------------|
D------------------------------------|
A-88-66-88-8-66-6---------------6-66-|
E-----------------66-6/8-88/999------|

5x
G-----------------------------------|
D-----------------------------------|
A-----------------------------------|
E-4444444444444444/88888888/99999999

4x
G------------------------------------|
D------------------------------------|
A-88-66-88-8-66-6---------------6-66-|
E-----------------66-6/8-88/999------|


G-------------------------------------------|
D--------------101010101010----------888888-|
A-8888888888888------------4444444444-------|
E-------------------------------------------|
            
Submit corrections

comments powered by Disqus
↑ Back to top | Cut Copy Bass for So Haunted. Lyrics for acoustic guitar and electric guitar. Tablatures and chords are parodies/interpretations of the original songs. You may use it for private study, scholarship, research or language learning purposes only