» » »

Cut Copy, Lights & Music Tabs (ver.1)

Artists:  A B C D E F G H I J K L M N O P Q R S T U V W X Y Z # 

Lights & Music Tabs (ver.1)

Cut Copy Tabs
 Rating:
4/5 (4 votes)
Lights & Music lessons Tabs too difficult? Try these video lessons and learn fast
1
                

ENDING

e --------------4-----------------------------------------------------|
B --6--6--4--6--------------------------6-----------------------------|
G -----------------6-----------6--5--6--------------------------------|
D -----------------------------------------6--------------------------|
A --------------------------------------------------------------------|
E --------------------------------------------------------------------|


MIDDLE

e --------------------------------------------------------------------|
B --------------------------------------------------------------------|
G ----------------------------------11--11--11--11--6---6---6---6-----|
D --8---8---8---8---8---8---8---8---11--11--11--11--6---6---6---6-----|
A --8---8---8---8---8---8---8---8---9---9---9---9---4---4---4---4-----|
E --6---6---6---6---6---6---6---6-------------------------------------|


SECOND VERSE

e --------------------------------------------------------------------|
B --------------------------------------------------------------------|
G --6---6-------6-------------------6---6---3---6---------------------|
D --6---6---8---6----------OR-------6---6---3---6---------------------|
A --4---4---8---4-------------------4---4---1---4---------------------|
E ----------6---------------------------------------------------------|
            
Submit corrections

comments powered by Disqus
↑ Back to top | Cut Copy Tabs for Lights & Music. Lyrics for acoustic guitar and electric guitar. 1 Tablatures and chords are parodies/interpretations of the original songs. You may use it for private study, scholarship, research or language learning purposes only